  0
SECTION
  2
HEADER
  9
$ACADVER
  1
AC1009
  9
$FILLMODE
 70
1
  9
$EXTMIN
 10
691151.76
 20
4553583.6
 30
0.0
  9
$EXTMAX
 10
704984.159
 20
4562992.08
 30
0.0
  9
$LIMMIN
 10
691151.76
 20
4553583.6
  9
$LIMMAX
 10
704984.159
 20
4562992.08
  0
ENDSEC
  0
SECTION
  2
TABLES
  0
TABLE
  2
LTYPE
 70
    11
  0
LTYPE
  2
CONTINUOUS
 70
    64
  3
Solid 
 72
    65
 73
     0
 40
0.0
  0
LTYPE
  2
DASHED
 70
    64
  3
__ __ __ __ __ __ __ __ __ __ __ __ __ __ __
 72
    65
 73
     2
 40
1.00
 49
0.8
 49
-0.2
  0
LTYPE
  2
DOT
 70
    64
  3
...............................................
 72
    65
 73
     8
 40
1.00
 49
0.05
 49
-0.20
 49
0.05
 49
-0.20
 49
0.05
 49
-0.20
 49
0.05
 49
-0.20
  0
LTYPE
  2
SHORT-DASHED
 70
    64
  3
_ _ _ _ _ _ _ _ _ _ _ _ _ _ _ _ _ _ _ _ _ _ _ 
 72
    65
 73
     4
 40
1.0
 49
.25
 49
-0.25
 49
0.25
 49
-0.25
  0
LTYPE
  2
LONG-SHORT-DASHED
 70
    64
  3
____ _ ____ _ ____ _ ____ _ ____ _ ____ _ ____
 72
    65
 73
     4
 40
1.0
 49
.5
 49
-0.125
 49
0.25
 49
-0.125
  0
LTYPE
  2
DASHDOT
 70
    64
  3
__ . __ . __ . __ . __ . __ . __ . __ . __ . __
 72
    65
 73
     4
 40
1.0
 49
0.65
 49
-0.15
 49
0.05
 49
-0.15
  0
LTYPE
  2
BORDER
 70
     0
  3
__ __ . __ __ . __ __ . __ __ . __ __ . __ __
 72
    65
 73
     6
 40
1.0
 49
0.325
 49
-0.10
 49
0.325
 49
-0.10
 49
0.05
 49
-0.10
  0
LTYPE
  2
DIVIDE
 70
     0
  3
__ . . __ . . __ . . __ . . __ . . __ . . __
 72
    65
 73
     6
 40
1.25
 49
0.5
 49
-0.25
 49
0.0
 49
-0.25
 49
0.0
 49
-0.25
  0
LTYPE
  2
CENTERX2
 70
    64
  3
________  __  ________  __  ________  __  _____
 72
    65
 73
     4
 40
4.0
 49
2.5
 49
-0.5
 49
0.5
 49
-0.5
  0
LTYPE
  2
HIDDEN
 70
    64
  3
_ _ _ _ _ _ _ _ _ _ _ _ _ _ _ _ _ _ _ _ _ _ _
 72
    65
 73
     2
 40
0.375
 49
0.25
 49
-0.125
  0
LTYPE
  2
PHANTOM
 70
    64
  3
_____ _ _ _____ _ _ _____ _ _ _____ _ _ ____
 72
    65
 73
     6
 40
2.5
 49
1.25
 49
-0.25
 49
0.25
 49
-0.25
 49
0.25
 49
-0.25
  0
ENDTAB
  0
TABLE
  2
LAYER
 70
3
  0
LAYER
  2
0
 70
64
 62
7
  6
CONTINUOUS
  0
LAYER
  2
Base_COLORBAR_block1all
 70
64
 62
7
  6
CONTINUOUS
  0
LAYER
  2
Data_powerlines_swed
 70
64
 62
7
  6
CONTINUOUS
  0
ENDTAB
  0
TABLE
  2
STYLE
 70
1
  0
STYLE
  2
standard
 70
64
  3
standard
  4

 40
0
 41
3
 42
1
 50
0
 71
0
  0
ENDTAB
  0
ENDSEC
  0
SECTION
  2
ENTITIES
  0
POLYLINE
  8
Data_powerlines_swed
 66
1
 40
2.39999944
 41
2.39999944
 62
7
 10
694110.527
 20
4559400.89
 30
0.0
  0
VERTEX
  8
Data_powerlines_swed
 10
694110.527
 20
4559400.89
 30
0.0
  0
VERTEX
  8
Data_powerlines_swed
 10
699433.377
 20
4559517.45
 30
0.0
  0
SEQEND
  8
Data_powerlines_swed
  0
POLYLINE
  8
Data_powerlines_swed
 66
1
 40
2.39999944
 41
2.39999944
 62
7
 10
699381.573
 20
4562535.02
 30
0.0
  0
VERTEX
  8
Data_powerlines_swed
 10
699381.573
 20
4562535.02
 30
0.0
  0
VERTEX
  8
Data_powerlines_swed
 10
699601.739
 20
4556655.28
 30
0.0
  0
SEQEND
  8
Data_powerlines_swed
  0
POLYLINE
  8
Data_powerlines_swed
 66
1
 40
2.39999944
 41
2.39999944
 62
7
 10
700223.386
 20
4562988.31
 30
0.0
  0
VERTEX
  8
Data_powerlines_swed
 10
700223.386
 20
4562988.31
 30
0.0
  0
VERTEX
  8
Data_powerlines_swed
 10
700456.503
 20
4556486.92
 30
0.0
  0
SEQEND
  8
Data_powerlines_swed
  0
POLYLINE
  8
Data_powerlines_swed
 66
1
 40
2.39999944
 41
2.39999944
 62
7
 10
701065.199
 20
4561201.07
 30
0.0
  0
VERTEX
  8
Data_powerlines_swed
 10
701065.199
 20
4561201.07
 30
0.0
  0
VERTEX
  8
Data_powerlines_swed
 10
701285.365
 20
4556473.97
 30
0.0
  0
VERTEX
  8
Data_powerlines_swed
 10
701285.365
 20
4556473.97
 30
0.0
  0
SEQEND
  8
Data_powerlines_swed
  0
POLYLINE
  8
Data_powerlines_swed
 66
1
 40
2.39999944
 41
2.39999944
 62
7
 10
703085.55
 20
4556331.51
 30
0.0
  0
VERTEX
  8
Data_powerlines_swed
 10
703085.55
 20
4556331.51
 30
0.0
  0
VERTEX
  8
Data_powerlines_swed
 10
700404.699
 20
4556344.46
 30
0.0
  0
SEQEND
  8
Data_powerlines_swed
  0
POLYLINE
  8
Data_powerlines_swed
 66
1
 40
2.39999944
 41
2.39999944
 62
7
 10
699381.573
 20
4554090.99
 30
0.0
  0
VERTEX
  8
Data_powerlines_swed
 10
699381.573
 20
4554090.99
 30
0.0
  0
VERTEX
  8
Data_powerlines_swed
 10
700443.552
 20
4556499.87
 30
0.0
  0
VERTEX
  8
Data_powerlines_swed
 10
700443.552
 20
4556499.87
 30
0.0
  0
SEQEND
  8
Data_powerlines_swed
  0
POLYLINE
  8
Data_powerlines_swed
 66
1
 40
2.39999944
 41
2.39999944
 62
7
 10
701259.463
 20
4556318.56
 30
0.0
  0
VERTEX
  8
Data_powerlines_swed
 10
701259.463
 20
4556318.56
 30
0.0
  0
VERTEX
  8
Data_powerlines_swed
 10
701298.316
 20
4554725.59
 30
0.0
  0
VERTEX
  8
Data_powerlines_swed
 10
700534.209
 20
4554596.08
 30
0.0
  0
VERTEX
  8
Data_powerlines_swed
 10
699679.445
 20
4554842.15
 30
0.0
  0
SEQEND
  8
Data_powerlines_swed
  0
POLYLINE
  8
Data_powerlines_swed
 66
1
 40
2.39999944
 41
2.39999944
 62
7
 10
701129.954
 20
4559569.25
 30
0.0
  0
VERTEX
  8
Data_powerlines_swed
 10
701129.954
 20
4559569.25
 30
0.0
  0
VERTEX
  8
Data_powerlines_swed
 10
704445.402
 20
4559530.4
 30
0.0
  0
VERTEX
  8
Data_powerlines_swed
 10
704471.304
 20
4558066.94
 30
0.0
  0
VERTEX
  8
Data_powerlines_swed
 10
702865.384
 20
4558092.84
 30
0.0
  0
VERTEX
  8
Data_powerlines_swed
 10
702813.58
 20
4558986.46
 30
0.0
  0
SEQEND
  8
Data_powerlines_swed
  0
POLYLINE
  8
Data_powerlines_swed
 66
1
 40
2.39999944
 41
2.39999944
 62
7
 10
696286.29
 20
4559478.59
 30
0.0
  0
VERTEX
  8
Data_powerlines_swed
 10
696286.29
 20
4559478.59
 30
0.0
  0
VERTEX
  8
Data_powerlines_swed
 10
696338.094
 20
4557069.71
 30
0.0
  0
SEQEND
  8
Data_powerlines_swed
  0
POLYLINE
  8
Data_powerlines_swed
 66
1
 40
2.39999944
 41
2.39999944
 62
7
 10
697231.711
 20
4556253.8
 30
0.0
  0
VERTEX
  8
Data_powerlines_swed
 10
697231.711
 20
4556253.8
 30
0.0
  0
VERTEX
  8
Data_powerlines_swed
 10
700288.141
 20
4556357.41
 30
0.0
  0
SEQEND
  8
Data_powerlines_swed
  0
POLYLINE
  8
Data_powerlines_swed
 66
1
 40
2.39999944
 41
2.39999944
 62
7
 10
697387.123
 20
4557846.77
 30
0.0
  0
VERTEX
  8
Data_powerlines_swed
 10
697387.123
 20
4557846.77
 30
0.0
  0
VERTEX
  8
Data_powerlines_swed
 10
697827.456
 20
4557833.82
 30
0.0
  0
VERTEX
  8
Data_powerlines_swed
 10
698099.426
 20
4557367.59
 30
0.0
  0
VERTEX
  8
Data_powerlines_swed
 10
697956.966
 20
4556240.85
 30
0.0
  0
VERTEX
  8
Data_powerlines_swed
 10
697931.064
 20
4556266.75
 30
0.0
  0
VERTEX
  8
Data_powerlines_swed
 10
697931.064
 20
4556266.75
 30
0.0
  0
SEQEND
  8
Data_powerlines_swed
  0
POLYLINE
  8
Data_powerlines_swed
 66
1
 40
2.39999944
 41
2.39999944
 62
7
 10
697684.995
 20
4562949.45
 30
0.0
  0
VERTEX
  8
Data_powerlines_swed
 10
697684.995
 20
4562949.45
 30
0.0
  0
VERTEX
  8
Data_powerlines_swed
 10
697905.162
 20
4561485.99
 30
0.0
  0
VERTEX
  8
Data_powerlines_swed
 10
698267.789
 20
4560967.96
 30
0.0
  0
VERTEX
  8
Data_powerlines_swed
 10
697801.554
 20
4560177.95
 30
0.0
  0
VERTEX
  8
Data_powerlines_swed
 10
697918.113
 20
4559400.89
 30
0.0
  0
VERTEX
  8
Data_powerlines_swed
 10
697918.113
 20
4559400.89
 30
0.0
  0
SEQEND
  8
Data_powerlines_swed
  0
POLYLINE
  8
Data_powerlines_swed
 66
1
 40
2.39999944
 41
2.39999944
 62
7
 10
694524.958
 20
4562884.7
 30
0.0
  0
VERTEX
  8
Data_powerlines_swed
 10
694524.958
 20
4562884.7
 30
0.0
  0
VERTEX
  8
Data_powerlines_swed
 10
694719.223
 20
4559478.59
 30
0.0
  0
SEQEND
  8
Data_powerlines_swed
  0
POLYLINE
  8
Data_powerlines_swed
 66
1
 40
2.39999944
 41
2.39999944
 62
7
 10
694602.664
 20
4560955
 30
0.0
  0
VERTEX
  8
Data_powerlines_swed
 10
694602.664
 20
4560955
 30
0.0
  0
VERTEX
  8
Data_powerlines_swed
 10
697076.3
 20
4561032.71
 30
0.0
  0
SEQEND
  8
Data_powerlines_swed
  0
POLYLINE
  8
Data_powerlines_swed
 66
1
 40
2.39999944
 41
2.39999944
 62
7
 10
696156.781
 20
4562923.55
 30
0.0
  0
VERTEX
  8
Data_powerlines_swed
 10
696156.781
 20
4562923.55
 30
0.0
  0
VERTEX
  8
Data_powerlines_swed
 10
696169.732
 20
4560216.8
 30
0.0
  0
SEQEND
  8
Data_powerlines_swed
  0
POLYLINE
  8
Data_powerlines_swed
 66
1
 40
2.39999944
 41
2.39999944
 62
7
 10
693100.352
 20
4562819.94
 30
0.0
  0
VERTEX
  8
Data_powerlines_swed
 10
693100.352
 20
4562819.94
 30
0.0
  0
VERTEX
  8
Data_powerlines_swed
 10
693087.401
 20
4560644.18
 30
0.0
  0
VERTEX
  8
Data_powerlines_swed
 10
693087.401
 20
4560644.18
 30
0.0
  0
SEQEND
  8
Data_powerlines_swed
  0
POLYLINE
  8
Data_powerlines_swed
 66
1
 40
2.39999944
 41
2.39999944
 62
7
 10
698021.721
 20
4556292.65
 30
0.0
  0
VERTEX
  8
Data_powerlines_swed
 10
698021.721
 20
4556292.65
 30
0.0
  0
VERTEX
  8
Data_powerlines_swed
 10
698086.475
 20
4555191.82
 30
0.0
  0
SEQEND
  8
Data_powerlines_swed
  0
ENDSEC
  0
EOF
