  0
SECTION
  2
HEADER
  9
$ACADVER
  1
AC1009
  9
$FILLMODE
 70
1
  9
$EXTMIN
 10
532721.92
 20
3274505.12
 30
0.0
  9
$EXTMAX
 10
553975.839
 20
3292988
 30
0.0
  9
$LIMMIN
 10
532721.92
 20
3274505.12
  9
$LIMMAX
 10
553975.839
 20
3292988
  0
ENDSEC
  0
SECTION
  2
TABLES
  0
TABLE
  2
LTYPE
 70
    11
  0
LTYPE
  2
CONTINUOUS
 70
    64
  3
Solid 
 72
    65
 73
     0
 40
0.0
  0
LTYPE
  2
DASHED
 70
    64
  3
__ __ __ __ __ __ __ __ __ __ __ __ __ __ __
 72
    65
 73
     2
 40
1.00
 49
0.8
 49
-0.2
  0
LTYPE
  2
DOT
 70
    64
  3
...............................................
 72
    65
 73
     8
 40
1.00
 49
0.05
 49
-0.20
 49
0.05
 49
-0.20
 49
0.05
 49
-0.20
 49
0.05
 49
-0.20
  0
LTYPE
  2
SHORT-DASHED
 70
    64
  3
_ _ _ _ _ _ _ _ _ _ _ _ _ _ _ _ _ _ _ _ _ _ _ 
 72
    65
 73
     4
 40
1.0
 49
.25
 49
-0.25
 49
0.25
 49
-0.25
  0
LTYPE
  2
LONG-SHORT-DASHED
 70
    64
  3
____ _ ____ _ ____ _ ____ _ ____ _ ____ _ ____
 72
    65
 73
     4
 40
1.0
 49
.5
 49
-0.125
 49
0.25
 49
-0.125
  0
LTYPE
  2
DASHDOT
 70
    64
  3
__ . __ . __ . __ . __ . __ . __ . __ . __ . __
 72
    65
 73
     4
 40
1.0
 49
0.65
 49
-0.15
 49
0.05
 49
-0.15
  0
LTYPE
  2
BORDER
 70
     0
  3
__ __ . __ __ . __ __ . __ __ . __ __ . __ __
 72
    65
 73
     6
 40
1.0
 49
0.325
 49
-0.10
 49
0.325
 49
-0.10
 49
0.05
 49
-0.10
  0
LTYPE
  2
DIVIDE
 70
     0
  3
__ . . __ . . __ . . __ . . __ . . __ . . __
 72
    65
 73
     6
 40
1.25
 49
0.5
 49
-0.25
 49
0.0
 49
-0.25
 49
0.0
 49
-0.25
  0
LTYPE
  2
CENTERX2
 70
    64
  3
________  __  ________  __  ________  __  _____
 72
    65
 73
     4
 40
4.0
 49
2.5
 49
-0.5
 49
0.5
 49
-0.5
  0
LTYPE
  2
HIDDEN
 70
    64
  3
_ _ _ _ _ _ _ _ _ _ _ _ _ _ _ _ _ _ _ _ _ _ _
 72
    65
 73
     2
 40
0.375
 49
0.25
 49
-0.125
  0
LTYPE
  2
PHANTOM
 70
    64
  3
_____ _ _ _____ _ _ _____ _ _ _____ _ _ ____
 72
    65
 73
     6
 40
2.5
 49
1.25
 49
-0.25
 49
0.25
 49
-0.25
 49
0.25
 49
-0.25
  0
ENDTAB
  0
TABLE
  2
LAYER
 70
2
  0
LAYER
  2
0
 70
64
 62
7
  6
CONTINUOUS
  0
LAYER
  2
a_DXF_streams_nad27_edit
 70
64
 62
7
  6
CONTINUOUS
  0
ENDTAB
  0
TABLE
  2
STYLE
 70
256
  0
STYLE
  2
standard
 70
64
  3
standard
  4

 40
0
 41
3
 42
1
 50
0
 71
0
  0
STYLE
  2
greekc
 70
64
  3
greekc
  4

 40
0
 41
3
 42
1
 50
0
 71
0
  0
STYLE
  2
italicc
 70
64
  3
italicc
  4

 40
0
 41
3
 42
1
 50
0
 71
0
  0
STYLE
  2
romanc
 70
64
  3
romanc
  4

 40
0
 41
3
 42
1
 50
0
 71
0
  0
STYLE
  2
scriptc
 70
64
  3
scriptc
  4

 40
0
 41
3
 42
1
 50
0
 71
0
  0
STYLE
  2
romand
 70
64
  3
romand
  4

 40
0
 41
3
 42
1
 50
0
 71
0
  0
STYLE
  2
gothice
 70
64
  3
gothice
  4

 40
0
 41
3
 42
1
 50
0
 71
0
  0
STYLE
  2
gothicg
 70
64
  3
gothicg
  4

 40
0
 41
3
 42
1
 50
0
 71
0
  0
STYLE
  2
gothici
 70
64
  3
gothici
  4

 40
0
 41
3
 42
1
 50
0
 71
0
  0
STYLE
  2
greeks
 70
64
  3
greeks
  4

 40
0
 41
3
 42
1
 50
0
 71
0
  0
STYLE
  2
standard
 70
64
  3
standard
  4

 40
0
 41
3
 42
1
 50
0
 71
0
  0
STYLE
  2
scripts
 70
64
  3
scripts
  4

 40
0
 41
3
 42
1
 50
0
 71
0
  0
STYLE
  2
italict
 70
64
  3
italict
  4

 40
0
 41
3
 42
1
 50
0
 71
0
  0
STYLE
  2
LUCON
 70
64
  3
LUCON.TTF
  4

 40
0
 41
3
 42
1
 50
0
 71
0
  0
STYLE
  2
L_10646
 70
64
  3
L_10646.TTF
  4

 40
0
 41
3
 42
1
 50
0
 71
0
  0
STYLE
  2
comic
 70
64
  3
comic.TTF
  4

 40
0
 41
3
 42
1
 50
0
 71
0
  0
STYLE
  2
impact
 70
64
  3
impact.TTF
  4

 40
0
 41
3
 42
1
 50
0
 71
0
  0
STYLE
  2
georgia
 70
64
  3
georgia.ttf
  4

 40
0
 41
3
 42
1
 50
0
 71
0
  0
STYLE
  2
pala
 70
64
  3
pala.TTF
  4

 40
0
 41
3
 42
1
 50
0
 71
0
  0
STYLE
  2
trebuc
 70
64
  3
trebuc.TTF
  4

 40
0
 41
3
 42
1
 50
0
 71
0
  0
STYLE
  2
webdings
 70
64
  3
webdings.TTF
  4

 40
0
 41
3
 42
1
 50
0
 71
0
  0
STYLE
  2
TAHOMA
 70
64
  3
TAHOMA.TTF
  4

 40
0
 41
3
 42
1
 50
0
 71
0
  0
STYLE
  2
MICROSS
 70
64
  3
MICROSS.TTF
  4

 40
0
 41
3
 42
1
 50
0
 71
0
  0
STYLE
  2
GSDefSym
 70
64
  3
GSDefSym.TTF
  4

 40
0
 41
3
 42
1
 50
0
 71
0
  0
STYLE
  2
GSOandG1
 70
64
  3
GSOandG1.TTF
  4

 40
0
 41
3
 42
1
 50
0
 71
0
  0
STYLE
  2
GSWeath1
 70
64
  3
GSWeath1.TTF
  4

 40
0
 41
3
 42
1
 50
0
 71
0
  0
STYLE
  2
GSWBarb1
 70
64
  3
GSWBarb1.TTF
  4

 40
0
 41
3
 42
1
 50
0
 71
0
  0
STYLE
  2
GSNArrow
 70
64
  3
GSNArrow.TTF
  4

 40
0
 41
3
 42
1
 50
0
 71
0
  0
STYLE
  2
GSMap1
 70
64
  3
GSMap1.TTF
  4

 40
0
 41
3
 42
1
 50
0
 71
0
  0
STYLE
  2
GSDidger1
 70
64
  3
GSDidger1.TTF
  4

 40
0
 41
3
 42
1
 50
0
 71
0
  0
STYLE
  2
HALVC___
 70
64
  3
HALVC___.TTF
  4

 40
0
 41
3
 42
1
 50
0
 71
0
  0
STYLE
  2
v500001_
 70
64
  3
v500001_.ttf
  4

 40
0
 41
3
 42
1
 50
0
 71
0
  0
STYLE
  2
ALGER
 70
64
  3
ALGER.TTF
  4

 40
0
 41
3
 42
1
 50
0
 71
0
  0
STYLE
  2
BASKVILL
 70
64
  3
BASKVILL.TTF
  4

 40
0
 41
3
 42
1
 50
0
 71
0
  0
STYLE
  2
BAUHS93
 70
64
  3
BAUHS93.TTF
  4

 40
0
 41
3
 42
1
 50
0
 71
0
  0
STYLE
  2
BELL
 70
64
  3
BELL.TTF
  4

 40
0
 41
3
 42
1
 50
0
 71
0
  0
STYLE
  2
BERNHC
 70
64
  3
BERNHC.TTF
  4

 40
0
 41
3
 42
1
 50
0
 71
0
  0
STYLE
  2
BRADHITC
 70
64
  3
BRADHITC.TTF
  4

 40
0
 41
3
 42
1
 50
0
 71
0
  0
STYLE
  2
BROADW
 70
64
  3
BROADW.TTF
  4

 40
0
 41
3
 42
1
 50
0
 71
0
  0
STYLE
  2
CALIFR
 70
64
  3
CALIFR.TTF
  4

 40
0
 41
3
 42
1
 50
0
 71
0
  0
STYLE
  2
CALIST
 70
64
  3
CALIST.TTF
  4

 40
0
 41
3
 42
1
 50
0
 71
0
  0
STYLE
  2
CASTELAR
 70
64
  3
CASTELAR.TTF
  4

 40
0
 41
3
 42
1
 50
0
 71
0
  0
STYLE
  2
CENTAUR
 70
64
  3
CENTAUR.TTF
  4

 40
0
 41
3
 42
1
 50
0
 71
0
  0
STYLE
  2
CENSCBK
 70
64
  3
CENSCBK.TTF
  4

 40
0
 41
3
 42
1
 50
0
 71
0
  0
STYLE
  2
CHILLER
 70
64
  3
CHILLER.TTF
  4

 40
0
 41
3
 42
1
 50
0
 71
0
  0
STYLE
  2
COLONNA
 70
64
  3
COLONNA.TTF
  4

 40
0
 41
3
 42
1
 50
0
 71
0
  0
STYLE
  2
CURLZ___
 70
64
  3
CURLZ___.TTF
  4

 40
0
 41
3
 42
1
 50
0
 71
0
  0
STYLE
  2
ITCEDSCR
 70
64
  3
ITCEDSCR.TTF
  4

 40
0
 41
3
 42
1
 50
0
 71
0
  0
STYLE
  2
ELEPHNT
 70
64
  3
ELEPHNT.TTF
  4

 40
0
 41
3
 42
1
 50
0
 71
0
  0
STYLE
  2
ENGR
 70
64
  3
ENGR.TTF
  4

 40
0
 41
3
 42
1
 50
0
 71
0
  0
STYLE
  2
ERASDEMI
 70
64
  3
ERASDEMI.TTF
  4

 40
0
 41
3
 42
1
 50
0
 71
0
  0
STYLE
  2
ERASMD
 70
64
  3
ERASMD.TTF
  4

 40
0
 41
3
 42
1
 50
0
 71
0
  0
STYLE
  2
FELIXTI
 70
64
  3
FELIXTI.TTF
  4

 40
0
 41
3
 42
1
 50
0
 71
0
  0
STYLE
  2
FORTE
 70
64
  3
FORTE.TTF
  4

 40
0
 41
3
 42
1
 50
0
 71
0
  0
STYLE
  2
FRABK
 70
64
  3
FRABK.TTF
  4

 40
0
 41
3
 42
1
 50
0
 71
0
  0
STYLE
  2
FRADM
 70
64
  3
FRADM.TTF
  4

 40
0
 41
3
 42
1
 50
0
 71
0
  0
STYLE
  2
FRADMCN
 70
64
  3
FRADMCN.TTF
  4

 40
0
 41
3
 42
1
 50
0
 71
0
  0
STYLE
  2
FRAHV
 70
64
  3
FRAHV.TTF
  4

 40
0
 41
3
 42
1
 50
0
 71
0
  0
STYLE
  2
FRAMD
 70
64
  3
FRAMD.TTF
  4

 40
0
 41
3
 42
1
 50
0
 71
0
  0
STYLE
  2
FRAMDCN
 70
64
  3
FRAMDCN.TTF
  4

 40
0
 41
3
 42
1
 50
0
 71
0
  0
STYLE
  2
FREESCPT
 70
64
  3
FREESCPT.TTF
  4

 40
0
 41
3
 42
1
 50
0
 71
0
  0
STYLE
  2
FRSCRIPT
 70
64
  3
FRSCRIPT.TTF
  4

 40
0
 41
3
 42
1
 50
0
 71
0
  0
STYLE
  2
GIGI
 70
64
  3
GIGI.TTF
  4

 40
0
 41
3
 42
1
 50
0
 71
0
  0
STYLE
  2
GIL_____
 70
64
  3
GIL_____.TTF
  4

 40
0
 41
3
 42
1
 50
0
 71
0
  0
STYLE
  2
GILC____
 70
64
  3
GILC____.TTF
  4

 40
0
 41
3
 42
1
 50
0
 71
0
  0
STYLE
  2
GLECB
 70
64
  3
GLECB.TTF
  4

 40
0
 41
3
 42
1
 50
0
 71
0
  0
STYLE
  2
GOUDOS
 70
64
  3
GOUDOS.TTF
  4

 40
0
 41
3
 42
1
 50
0
 71
0
  0
STYLE
  2
GOUDYSTO
 70
64
  3
GOUDYSTO.TTF
  4

 40
0
 41
3
 42
1
 50
0
 71
0
  0
STYLE
  2
HARNGTON
 70
64
  3
HARNGTON.TTF
  4

 40
0
 41
3
 42
1
 50
0
 71
0
  0
STYLE
  2
HTOWERT
 70
64
  3
HTOWERT.TTF
  4

 40
0
 41
3
 42
1
 50
0
 71
0
  0
STYLE
  2
IMPRISHA
 70
64
  3
IMPRISHA.TTF
  4

 40
0
 41
3
 42
1
 50
0
 71
0
  0
STYLE
  2
JOKERMAN
 70
64
  3
JOKERMAN.TTF
  4

 40
0
 41
3
 42
1
 50
0
 71
0
  0
STYLE
  2
JUICE___
 70
64
  3
JUICE___.TTF
  4

 40
0
 41
3
 42
1
 50
0
 71
0
  0
STYLE
  2
ITCKrist
 70
64
  3
ITCKrist.ttf
  4

 40
0
 41
3
 42
1
 50
0
 71
0
  0
STYLE
  2
KUNSTLER
 70
64
  3
KUNSTLER.TTF
  4

 40
0
 41
3
 42
1
 50
0
 71
0
  0
STYLE
  2
LBRITE
 70
64
  3
LBRITE.TTF
  4

 40
0
 41
3
 42
1
 50
0
 71
0
  0
STYLE
  2
LFAX
 70
64
  3
LFAX.TTF
  4

 40
0
 41
3
 42
1
 50
0
 71
0
  0
STYLE
  2
LSANS
 70
64
  3
LSANS.TTF
  4

 40
0
 41
3
 42
1
 50
0
 71
0
  0
STYLE
  2
LTYPE
 70
64
  3
LTYPE.TTF
  4

 40
0
 41
3
 42
1
 50
0
 71
0
  0
STYLE
  2
MAIAN
 70
64
  3
MAIAN.TTF
  4

 40
0
 41
3
 42
1
 50
0
 71
0
  0
STYLE
  2
MATURASC
 70
64
  3
MATURASC.TTF
  4

 40
0
 41
3
 42
1
 50
0
 71
0
  0
STYLE
  2
MISTRAL
 70
64
  3
MISTRAL.TTF
  4

 40
0
 41
3
 42
1
 50
0
 71
0
  0
STYLE
  2
MOD20
 70
64
  3
MOD20.TTF
  4

 40
0
 41
3
 42
1
 50
0
 71
0
  0
STYLE
  2
NIAGENG
 70
64
  3
NIAGENG.TTF
  4

 40
0
 41
3
 42
1
 50
0
 71
0
  0
STYLE
  2
NIAGSOL
 70
64
  3
NIAGSOL.TTF
  4

 40
0
 41
3
 42
1
 50
0
 71
0
  0
STYLE
  2
OCRAEXT
 70
64
  3
OCRAEXT.TTF
  4

 40
0
 41
3
 42
1
 50
0
 71
0
  0
STYLE
  2
OLDENGL
 70
64
  3
OLDENGL.TTF
  4

 40
0
 41
3
 42
1
 50
0
 71
0
  0
STYLE
  2
ONYX
 70
64
  3
ONYX.TTF
  4

 40
0
 41
3
 42
1
 50
0
 71
0
  0
STYLE
  2
PALSCRI
 70
64
  3
PALSCRI.TTF
  4

 40
0
 41
3
 42
1
 50
0
 71
0
  0
STYLE
  2
PAPYRUS
 70
64
  3
PAPYRUS.TTF
  4

 40
0
 41
3
 42
1
 50
0
 71
0
  0
STYLE
  2
PARCHM
 70
64
  3
PARCHM.TTF
  4

 40
0
 41
3
 42
1
 50
0
 71
0
  0
STYLE
  2
PER_____
 70
64
  3
PER_____.TTF
  4

 40
0
 41
3
 42
1
 50
0
 71
0
  0
STYLE
  2
PLAYBILL
 70
64
  3
PLAYBILL.TTF
  4

 40
0
 41
3
 42
1
 50
0
 71
0
  0
STYLE
  2
POORICH
 70
64
  3
POORICH.TTF
  4

 40
0
 41
3
 42
1
 50
0
 71
0
  0
STYLE
  2
PRISTINA
 70
64
  3
PRISTINA.TTF
  4

 40
0
 41
3
 42
1
 50
0
 71
0
  0
STYLE
  2
RAVIE
 70
64
  3
RAVIE.TTF
  4

 40
0
 41
3
 42
1
 50
0
 71
0
  0
STYLE
  2
ROCK
 70
64
  3
ROCK.TTF
  4

 40
0
 41
3
 42
1
 50
0
 71
0
  0
STYLE
  2
ROCC____
 70
64
  3
ROCC____.TTF
  4

 40
0
 41
3
 42
1
 50
0
 71
0
  0
STYLE
  2
INFROMAN
 70
64
  3
INFROMAN.TTF
  4

 40
0
 41
3
 42
1
 50
0
 71
0
  0
STYLE
  2
SHOWG
 70
64
  3
SHOWG.TTF
  4

 40
0
 41
3
 42
1
 50
0
 71
0
  0
STYLE
  2
SNAP____
 70
64
  3
SNAP____.TTF
  4

 40
0
 41
3
 42
1
 50
0
 71
0
  0
STYLE
  2
STENCIL
 70
64
  3
STENCIL.TTF
  4

 40
0
 41
3
 42
1
 50
0
 71
0
  0
STYLE
  2
TEMPSITC
 70
64
  3
TEMPSITC.TTF
  4

 40
0
 41
3
 42
1
 50
0
 71
0
  0
STYLE
  2
TCCM____
 70
64
  3
TCCM____.TTF
  4

 40
0
 41
3
 42
1
 50
0
 71
0
  0
STYLE
  2
TCM_____
 70
64
  3
TCM_____.TTF
  4

 40
0
 41
3
 42
1
 50
0
 71
0
  0
STYLE
  2
VINERITC
 70
64
  3
VINERITC.TTF
  4

 40
0
 41
3
 42
1
 50
0
 71
0
  0
STYLE
  2
VLADIMIR
 70
64
  3
VLADIMIR.TTF
  4

 40
0
 41
3
 42
1
 50
0
 71
0
  0
STYLE
  2
LATINWD
 70
64
  3
LATINWD.TTF
  4

 40
0
 41
3
 42
1
 50
0
 71
0
  0
STYLE
  2
AGENCYR
 70
64
  3
AGENCYR.TTF
  4

 40
0
 41
3
 42
1
 50
0
 71
0
  0
STYLE
  2
BRLNSR
 70
64
  3
BRLNSR.TTF
  4

 40
0
 41
3
 42
1
 50
0
 71
0
  0
STYLE
  2
LBRITED
 70
64
  3
LBRITED.TTF
  4

 40
0
 41
3
 42
1
 50
0
 71
0
  0
STYLE
  2
LFAXD
 70
64
  3
LFAXD.TTF
  4

 40
0
 41
3
 42
1
 50
0
 71
0
  0
STYLE
  2
LSANSD
 70
64
  3
LSANSD.TTF
  4

 40
0
 41
3
 42
1
 50
0
 71
0
  0
STYLE
  2
ALLEGRON
 70
64
  3
ALLEGRON.TTF
  4

 40
0
 41
3
 42
1
 50
0
 71
0
  0
STYLE
  2
AVGARDN
 70
64
  3
AVGARDN.TTF
  4

 40
0
 41
3
 42
1
 50
0
 71
0
  0
STYLE
  2
AVGARDD
 70
64
  3
AVGARDD.TTF
  4

 40
0
 41
3
 42
1
 50
0
 71
0
  0
STYLE
  2
BNKGOTHM
 70
64
  3
BNKGOTHM.TTF
  4

 40
0
 41
3
 42
1
 50
0
 71
0
  0
STYLE
  2
BNHRDFAN
 70
64
  3
BNHRDFAN.TTF
  4

 40
0
 41
3
 42
1
 50
0
 71
0
  0
STYLE
  2
E111Viva
 70
64
  3
E111Viva.ttf
  4

 40
0
 41
3
 42
1
 50
0
 71
0
  0
STYLE
  2
GOUDHNDN
 70
64
  3
GOUDHNDN.TTF
  4

 40
0
 41
3
 42
1
 50
0
 71
0
  0
STYLE
  2
GOUDYOSN
 70
64
  3
GOUDYOSN.TTF
  4

 40
0
 41
3
 42
1
 50
0
 71
0
  0
STYLE
  2
HUM521N
 70
64
  3
HUM521N.TTF
  4

 40
0
 41
3
 42
1
 50
0
 71
0
  0
STYLE
  2
KABELN
 70
64
  3
KABELN.TTF
  4

 40
0
 41
3
 42
1
 50
0
 71
0
  0
STYLE
  2
KABELU
 70
64
  3
KABELU.TTF
  4

 40
0
 41
3
 42
1
 50
0
 71
0
  0
STYLE
  2
OZHANDIN
 70
64
  3
OZHANDIN.TTF
  4

 40
0
 41
3
 42
1
 50
0
 71
0
  0
STYLE
  2
PSTRBODN
 70
64
  3
PSTRBODN.TTF
  4

 40
0
 41
3
 42
1
 50
0
 71
0
  0
STYLE
  2
SERIFAN
 70
64
  3
SERIFAN.TTF
  4

 40
0
 41
3
 42
1
 50
0
 71
0
  0
STYLE
  2
SERIFAT
 70
64
  3
SERIFAT.TTF
  4

 40
0
 41
3
 42
1
 50
0
 71
0
  0
STYLE
  2
STAC222N
 70
64
  3
STAC222N.TTF
  4

 40
0
 41
3
 42
1
 50
0
 71
0
  0
STYLE
  2
SWZ911XC
 70
64
  3
SWZ911XC.TTF
  4

 40
0
 41
3
 42
1
 50
0
 71
0
  0
STYLE
  2
TYPOUPRN
 70
64
  3
TYPOUPRN.TTF
  4

 40
0
 41
3
 42
1
 50
0
 71
0
  0
STYLE
  2
WPSI13N_
 70
64
  3
WPSI13N_.TTF
  4

 40
0
 41
3
 42
1
 50
0
 71
0
  0
STYLE
  2
WPSI14N_
 70
64
  3
WPSI14N_.TTF
  4

 40
0
 41
3
 42
1
 50
0
 71
0
  0
STYLE
  2
WPCO03N_
 70
64
  3
WPCO03N_.TTF
  4

 40
0
 41
3
 42
1
 50
0
 71
0
  0
STYLE
  2
WPRO10NA
 70
64
  3
WPRO10NA.TTF
  4

 40
0
 41
3
 42
1
 50
0
 71
0
  0
STYLE
  2
WPRO10NB
 70
64
  3
WPRO10NB.TTF
  4

 40
0
 41
3
 42
1
 50
0
 71
0
  0
STYLE
  2
WPCE08N_
 70
64
  3
WPCE08N_.TTF
  4

 40
0
 41
3
 42
1
 50
0
 71
0
  0
STYLE
  2
WPCO08N_
 70
64
  3
WPCO08N_.TTF
  4

 40
0
 41
3
 42
1
 50
0
 71
0
  0
STYLE
  2
WPHV08N_
 70
64
  3
WPHV08N_.TTF
  4

 40
0
 41
3
 42
1
 50
0
 71
0
  0
STYLE
  2
WPDV09N_
 70
64
  3
WPDV09N_.TTF
  4

 40
0
 41
3
 42
1
 50
0
 71
0
  0
STYLE
  2
WPHV05NA
 70
64
  3
WPHV05NA.TTF
  4

 40
0
 41
3
 42
1
 50
0
 71
0
  0
STYLE
  2
WPHV05NB
 70
64
  3
WPHV05NB.TTF
  4

 40
0
 41
3
 42
1
 50
0
 71
0
  0
STYLE
  2
WPHV11N_
 70
64
  3
WPHV11N_.TTF
  4

 40
0
 41
3
 42
1
 50
0
 71
0
  0
STYLE
  2
WPHV06NA
 70
64
  3
WPHV06NA.TTF
  4

 40
0
 41
3
 42
1
 50
0
 71
0
  0
STYLE
  2
WPHV06NB
 70
64
  3
WPHV06NB.TTF
  4

 40
0
 41
3
 42
1
 50
0
 71
0
  0
STYLE
  2
WPHV07NA
 70
64
  3
WPHV07NA.TTF
  4

 40
0
 41
3
 42
1
 50
0
 71
0
  0
STYLE
  2
WPHV07NB
 70
64
  3
WPHV07NB.TTF
  4

 40
0
 41
3
 42
1
 50
0
 71
0
  0
STYLE
  2
WPHV01NA
 70
64
  3
WPHV01NA.TTF
  4

 40
0
 41
3
 42
1
 50
0
 71
0
  0
STYLE
  2
WPHV01NB
 70
64
  3
WPHV01NB.TTF
  4

 40
0
 41
3
 42
1
 50
0
 71
0
  0
STYLE
  2
WPCO01NA
 70
64
  3
WPCO01NA.TTF
  4

 40
0
 41
3
 42
1
 50
0
 71
0
  0
STYLE
  2
WPCO01NB
 70
64
  3
WPCO01NB.TTF
  4

 40
0
 41
3
 42
1
 50
0
 71
0
  0
STYLE
  2
WPRO01NA
 70
64
  3
WPRO01NA.TTF
  4

 40
0
 41
3
 42
1
 50
0
 71
0
  0
STYLE
  2
WPRO01NB
 70
64
  3
WPRO01NB.TTF
  4

 40
0
 41
3
 42
1
 50
0
 71
0
  0
STYLE
  2
WPHV02N_
 70
64
  3
WPHV02N_.TTF
  4

 40
0
 41
3
 42
1
 50
0
 71
0
  0
STYLE
  2
WPHV04N_
 70
64
  3
WPHV04N_.TTF
  4

 40
0
 41
3
 42
1
 50
0
 71
0
  0
STYLE
  2
ZELP711N
 70
64
  3
ZELP711N.TTF
  4

 40
0
 41
3
 42
1
 50
0
 71
0
  0
STYLE
  2
ZURCHE
 70
64
  3
ZURCHE.TTF
  4

 40
0
 41
3
 42
1
 50
0
 71
0
  0
STYLE
  2
GSGeol1
 70
64
  3
GSGeol1.ttf
  4

 40
0
 41
3
 42
1
 50
0
 71
0
  0
STYLE
  2
ARIAL
 70
64
  3
ARIAL.TTF
  4

 40
0
 41
3
 42
1
 50
0
 71
0
  0
STYLE
  2
ARIALN
 70
64
  3
ARIALN.TTF
  4

 40
0
 41
3
 42
1
 50
0
 71
0
  0
STYLE
  2
BKANT
 70
64
  3
BKANT.TTF
  4

 40
0
 41
3
 42
1
 50
0
 71
0
  0
STYLE
  2
BOOKOS
 70
64
  3
BOOKOS.TTF
  4

 40
0
 41
3
 42
1
 50
0
 71
0
  0
STYLE
  2
GOTHIC
 70
64
  3
GOTHIC.TTF
  4

 40
0
 41
3
 42
1
 50
0
 71
0
  0
STYLE
  2
COUR
 70
64
  3
COUR.TTF
  4

 40
0
 41
3
 42
1
 50
0
 71
0
  0
STYLE
  2
GARA
 70
64
  3
GARA.TTF
  4

 40
0
 41
3
 42
1
 50
0
 71
0
  0
STYLE
  2
HATTEN
 70
64
  3
HATTEN.TTF
  4

 40
0
 41
3
 42
1
 50
0
 71
0
  0
STYLE
  2
MTCORSVA
 70
64
  3
MTCORSVA.TTF
  4

 40
0
 41
3
 42
1
 50
0
 71
0
  0
STYLE
  2
OUTLOOK
 70
64
  3
OUTLOOK.TTF
  4

 40
0
 41
3
 42
1
 50
0
 71
0
  0
STYLE
  2
SYMBOL
 70
64
  3
SYMBOL.TTF
  4

 40
0
 41
3
 42
1
 50
0
 71
0
  0
STYLE
  2
romanc
 70
64
  3
romanc
  4

 40
0
 41
3
 42
1
 50
0
 71
0
  0
STYLE
  2
VERDANA
 70
64
  3
VERDANA.TTF
  4

 40
0
 41
3
 42
1
 50
0
 71
0
  0
STYLE
  2
WINGDING
 70
64
  3
WINGDING.TTF
  4

 40
0
 41
3
 42
1
 50
0
 71
0
  0
STYLE
  2
WINGDNG2
 70
64
  3
WINGDNG2.TTF
  4

 40
0
 41
3
 42
1
 50
0
 71
0
  0
STYLE
  2
WINGDNG3
 70
64
  3
WINGDNG3.TTF
  4

 40
0
 41
3
 42
1
 50
0
 71
0
  0
STYLE
  2
MTEXTRA
 70
64
  3
MTEXTRA.TTF
  4

 40
0
 41
3
 42
1
 50
0
 71
0
  0
STYLE
  2
COMBULN
 70
64
  3
COMBULN.TTF
  4

 40
0
 41
3
 42
1
 50
0
 71
0
  0
STYLE
  2
DAUPHINN
 70
64
  3
DAUPHINN.TTF
  4

 40
0
 41
3
 42
1
 50
0
 71
0
  0
STYLE
  2
LJSpace
 70
64
  3
LJSpace.ttf
  4

 40
0
 41
3
 42
1
 50
0
 71
0
  0
STYLE
  2
MAPSYM
 70
64
  3
MAPSYM.TTF
  4

 40
0
 41
3
 42
1
 50
0
 71
0
  0
STYLE
  2
ARIALUNI
 70
64
  3
ARIALUNI.TTF
  4

 40
0
 41
3
 42
1
 50
0
 71
0
  0
STYLE
  2
BATANG
 70
64
  3
BATANG.TTF
  4

 40
0
 41
3
 42
1
 50
0
 71
0
  0
STYLE
  2
CENTURY
 70
64
  3
CENTURY.TTF
  4

 40
0
 41
3
 42
1
 50
0
 71
0
  0
STYLE
  2
MSMINCHO
 70
64
  3
MSMINCHO.TTF
  4

 40
0
 41
3
 42
1
 50
0
 71
0
  0
STYLE
  2
PMINGLIU
 70
64
  3
PMINGLIU.TTF
  4

 40
0
 41
3
 42
1
 50
0
 71
0
  0
STYLE
  2
SIMSUN
 70
64
  3
SIMSUN.TTF
  4

 40
0
 41
3
 42
1
 50
0
 71
0
  0
STYLE
  2
MTEXTRA
 70
64
  3
MTEXTRA.TTF
  4

 40
0
 41
3
 42
1
 50
0
 71
0
  0
STYLE
  2
ZWAdobeF
 70
64
  3
ZWAdobeF.TTF
  4

 40
0
 41
3
 42
1
 50
0
 71
0
  0
STYLE
  2
esri_132
 70
64
  3
esri_132.ttf
  4

 40
0
 41
3
 42
1
 50
0
 71
0
  0
STYLE
  2
esri_131
 70
64
  3
esri_131.ttf
  4

 40
0
 41
3
 42
1
 50
0
 71
0
  0
STYLE
  2
esri_130
 70
64
  3
esri_130.ttf
  4

 40
0
 41
3
 42
1
 50
0
 71
0
  0
STYLE
  2
esri_13
 70
64
  3
esri_13.ttf
  4

 40
0
 41
3
 42
1
 50
0
 71
0
  0
STYLE
  2
esri_121
 70
64
  3
esri_121.ttf
  4

 40
0
 41
3
 42
1
 50
0
 71
0
  0
STYLE
  2
esri_12
 70
64
  3
esri_12.ttf
  4

 40
0
 41
3
 42
1
 50
0
 71
0
  0
STYLE
  2
esri_33
 70
64
  3
esri_33.ttf
  4

 40
0
 41
3
 42
1
 50
0
 71
0
  0
STYLE
  2
esri_1
 70
64
  3
esri_1.ttf
  4

 40
0
 41
3
 42
1
 50
0
 71
0
  0
STYLE
  2
esri_133
 70
64
  3
esri_133.ttf
  4

 40
0
 41
3
 42
1
 50
0
 71
0
  0
STYLE
  2
esri_14
 70
64
  3
esri_14.ttf
  4

 40
0
 41
3
 42
1
 50
0
 71
0
  0
STYLE
  2
esri_144
 70
64
  3
esri_144.ttf
  4

 40
0
 41
3
 42
1
 50
0
 71
0
  0
STYLE
  2
esri_149
 70
64
  3
esri_149.ttf
  4

 40
0
 41
3
 42
1
 50
0
 71
0
  0
STYLE
  2
esri_15
 70
64
  3
esri_15.ttf
  4

 40
0
 41
3
 42
1
 50
0
 71
0
  0
STYLE
  2
esri_150
 70
64
  3
esri_150.ttf
  4

 40
0
 41
3
 42
1
 50
0
 71
0
  0
STYLE
  2
esri_151
 70
64
  3
esri_151.ttf
  4

 40
0
 41
3
 42
1
 50
0
 71
0
  0
STYLE
  2
esri_152
 70
64
  3
esri_152.ttf
  4

 40
0
 41
3
 42
1
 50
0
 71
0
  0
STYLE
  2
esri_153
 70
64
  3
esri_153.ttf
  4

 40
0
 41
3
 42
1
 50
0
 71
0
  0
STYLE
  2
esri_159
 70
64
  3
esri_159.ttf
  4

 40
0
 41
3
 42
1
 50
0
 71
0
  0
STYLE
  2
esri_16
 70
64
  3
esri_16.ttf
  4

 40
0
 41
3
 42
1
 50
0
 71
0
  0
STYLE
  2
esri_160
 70
64
  3
esri_160.ttf
  4

 40
0
 41
3
 42
1
 50
0
 71
0
  0
STYLE
  2
esri_161
 70
64
  3
esri_161.ttf
  4

 40
0
 41
3
 42
1
 50
0
 71
0
  0
STYLE
  2
esri_17
 70
64
  3
esri_17.ttf
  4

 40
0
 41
3
 42
1
 50
0
 71
0
  0
STYLE
  2
esri_19
 70
64
  3
esri_19.ttf
  4

 40
0
 41
3
 42
1
 50
0
 71
0
  0
STYLE
  2
esri_2
 70
64
  3
esri_2.ttf
  4

 40
0
 41
3
 42
1
 50
0
 71
0
  0
STYLE
  2
esri_20
 70
64
  3
esri_20.ttf
  4

 40
0
 41
3
 42
1
 50
0
 71
0
  0
STYLE
  2
esri_21
 70
64
  3
esri_21.ttf
  4

 40
0
 41
3
 42
1
 50
0
 71
0
  0
STYLE
  2
esri_216
 70
64
  3
esri_216.ttf
  4

 40
0
 41
3
 42
1
 50
0
 71
0
  0
STYLE
  2
esri_22
 70
64
  3
esri_22.ttf
  4

 40
0
 41
3
 42
1
 50
0
 71
0
  0
STYLE
  2
esri_220
 70
64
  3
esri_220.ttf
  4

 40
0
 41
3
 42
1
 50
0
 71
0
  0
STYLE
  2
esri_221
 70
64
  3
esri_221.ttf
  4

 40
0
 41
3
 42
1
 50
0
 71
0
  0
STYLE
  2
esri_222
 70
64
  3
esri_222.ttf
  4

 40
0
 41
3
 42
1
 50
0
 71
0
  0
STYLE
  2
esri_223
 70
64
  3
esri_223.ttf
  4

 40
0
 41
3
 42
1
 50
0
 71
0
  0
STYLE
  2
esri_224
 70
64
  3
esri_224.ttf
  4

 40
0
 41
3
 42
1
 50
0
 71
0
  0
STYLE
  2
esri_225
 70
64
  3
esri_225.ttf
  4

 40
0
 41
3
 42
1
 50
0
 71
0
  0
STYLE
  2
esri_23
 70
64
  3
esri_23.ttf
  4

 40
0
 41
3
 42
1
 50
0
 71
0
  0
STYLE
  2
esri_24
 70
64
  3
esri_24.ttf
  4

 40
0
 41
3
 42
1
 50
0
 71
0
  0
STYLE
  2
esri_25
 70
64
  3
esri_25.ttf
  4

 40
0
 41
3
 42
1
 50
0
 71
0
  0
STYLE
  2
esri_26
 70
64
  3
esri_26.ttf
  4

 40
0
 41
3
 42
1
 50
0
 71
0
  0
STYLE
  2
esri_29
 70
64
  3
esri_29.ttf
  4

 40
0
 41
3
 42
1
 50
0
 71
0
  0
STYLE
  2
esri_3
 70
64
  3
esri_3.ttf
  4

 40
0
 41
3
 42
1
 50
0
 71
0
  0
STYLE
  2
esri_30s
 70
64
  3
esri_30s.ttf
  4

 40
0
 41
3
 42
1
 50
0
 71
0
  0
STYLE
  2
esri_11
 70
64
  3
esri_11.ttf
  4

 40
0
 41
3
 42
1
 50
0
 71
0
  0
STYLE
  2
esri_9
 70
64
  3
esri_9.ttf
  4

 40
0
 41
3
 42
1
 50
0
 71
0
  0
STYLE
  2
esri_375
 70
64
  3
esri_375.ttf
  4

 40
0
 41
3
 42
1
 50
0
 71
0
  0
STYLE
  2
esri_376
 70
64
  3
esri_376.ttf
  4

 40
0
 41
3
 42
1
 50
0
 71
0
  0
STYLE
  2
esri_377
 70
64
  3
esri_377.ttf
  4

 40
0
 41
3
 42
1
 50
0
 71
0
  0
STYLE
  2
esri_39
 70
64
  3
esri_39.ttf
  4

 40
0
 41
3
 42
1
 50
0
 71
0
  0
STYLE
  2
esri_4
 70
64
  3
esri_4.ttf
  4

 40
0
 41
3
 42
1
 50
0
 71
0
  0
STYLE
  2
esri_40
 70
64
  3
esri_40.ttf
  4

 40
0
 41
3
 42
1
 50
0
 71
0
  0
STYLE
  2
esri_400
 70
64
  3
esri_400.ttf
  4

 40
0
 41
3
 42
1
 50
0
 71
0
  0
STYLE
  2
esri_405
 70
64
  3
esri_405.ttf
  4

 40
0
 41
3
 42
1
 50
0
 71
0
  0
STYLE
  2
esri_406
 70
64
  3
esri_406.ttf
  4

 40
0
 41
3
 42
1
 50
0
 71
0
  0
STYLE
  2
esri_44
 70
64
  3
esri_44.ttf
  4

 40
0
 41
3
 42
1
 50
0
 71
0
  0
STYLE
  2
esri_47
 70
64
  3
esri_47.ttf
  4

 40
0
 41
3
 42
1
 50
0
 71
0
  0
STYLE
  2
esri_48
 70
64
  3
esri_48.ttf
  4

 40
0
 41
3
 42
1
 50
0
 71
0
  0
STYLE
  2
esri_49
 70
64
  3
esri_49.ttf
  4

 40
0
 41
3
 42
1
 50
0
 71
0
  0
STYLE
  2
esri_5
 70
64
  3
esri_5.ttf
  4

 40
0
 41
3
 42
1
 50
0
 71
0
  0
STYLE
  2
esri_500
 70
64
  3
esri_500.ttf
  4

 40
0
 41
3
 42
1
 50
0
 71
0
  0
STYLE
  2
esri_651
 70
64
  3
esri_651.ttf
  4

 40
0
 41
3
 42
1
 50
0
 71
0
  0
STYLE
  2
esri_652
 70
64
  3
esri_652.ttf
  4

 40
0
 41
3
 42
1
 50
0
 71
0
  0
STYLE
  2
esri_7
 70
64
  3
esri_7.ttf
  4

 40
0
 41
3
 42
1
 50
0
 71
0
  0
STYLE
  2
esri_730
 70
64
  3
esri_730.ttf
  4

 40
0
 41
3
 42
1
 50
0
 71
0
  0
STYLE
  2
esri_8
 70
64
  3
esri_8.ttf
  4

 40
0
 41
3
 42
1
 50
0
 71
0
  0
STYLE
  2
esri_800
 70
64
  3
esri_800.ttf
  4

 40
0
 41
3
 42
1
 50
0
 71
0
  0
STYLE
  2
esri_801
 70
64
  3
esri_801.ttf
  4

 40
0
 41
3
 42
1
 50
0
 71
0
  0
STYLE
  2
esri_802
 70
64
  3
esri_802.ttf
  4

 40
0
 41
3
 42
1
 50
0
 71
0
  0
STYLE
  2
esri_803
 70
64
  3
esri_803.ttf
  4

 40
0
 41
3
 42
1
 50
0
 71
0
  0
STYLE
  2
esri_804
 70
64
  3
esri_804.ttf
  4

 40
0
 41
3
 42
1
 50
0
 71
0
  0
STYLE
  2
esri_34
 70
64
  3
esri_34.ttf
  4

 40
0
 41
3
 42
1
 50
0
 71
0
  0
ENDTAB
  0
ENDSEC
  0
SECTION
  2
ENTITIES
  0
POLYLINE
  8
a_DXF_streams_nad27_edit
 66
1
 40
47.9999845
 41
47.9999845
 62
5
 10
539549
 20
3275642
 30
0.0
  0
VERTEX
  8
a_DXF_streams_nad27_edit
 10
539549
 20
3275642
 30
0.0
  0
VERTEX
  8
a_DXF_streams_nad27_edit
 10
539463
 20
3275718
 30
0.0
  0
VERTEX
  8
a_DXF_streams_nad27_edit
 10
539219
 20
3275992
 30
0.0
  0
VERTEX
  8
a_DXF_streams_nad27_edit
 10
539061
 20
3276159
 30
0.0
  0
VERTEX
  8
a_DXF_streams_nad27_edit
 10
538981
 20
3276238
 30
0.0
  0
VERTEX
  8
a_DXF_streams_nad27_edit
 10
538973
 20
3276248
 30
0.0
  0
VERTEX
  8
a_DXF_streams_nad27_edit
 10
538957
 20
3276290
 30
0.0
  0
VERTEX
  8
a_DXF_streams_nad27_edit
 10
538957
 20
3276299
 30
0.0
  0
VERTEX
  8
a_DXF_streams_nad27_edit
 10
538970
 20
3276315
 30
0.0
  0
VERTEX
  8
a_DXF_streams_nad27_edit
 10
539038
 20
3276380
 30
0.0
  0
VERTEX
  8
a_DXF_streams_nad27_edit
 10
539051
 20
3276399
 30
0.0
  0
VERTEX
  8
a_DXF_streams_nad27_edit
 10
539058
 20
3276415
 30
0.0
  0
VERTEX
  8
a_DXF_streams_nad27_edit
 10
539062
 20
3276439
 30
0.0
  0
VERTEX
  8
a_DXF_streams_nad27_edit
 10
539065
 20
3276507
 30
0.0
  0
VERTEX
  8
a_DXF_streams_nad27_edit
 10
539063
 20
3276551
 30
0.0
  0
VERTEX
  8
a_DXF_streams_nad27_edit
 10
539051
 20
3276599
 30
0.0
  0
VERTEX
  8
a_DXF_streams_nad27_edit
 10
538965
 20
3276684
 30
0.0
  0
SEQEND
  8
a_DXF_streams_nad27_edit
  0
POLYLINE
  8
a_DXF_streams_nad27_edit
 66
1
 40
47.9999845
 41
47.9999845
 62
5
 10
542829
 20
3276202
 30
0.0
  0
VERTEX
  8
a_DXF_streams_nad27_edit
 10
542829
 20
3276202
 30
0.0
  0
VERTEX
  8
a_DXF_streams_nad27_edit
 10
542841
 20
3276250
 30
0.0
  0
VERTEX
  8
a_DXF_streams_nad27_edit
 10
542867
 20
3276311
 30
0.0
  0
VERTEX
  8
a_DXF_streams_nad27_edit
 10
542927
 20
3276441
 30
0.0
  0
VERTEX
  8
a_DXF_streams_nad27_edit
 10
542954
 20
3276517
 30
0.0
  0
VERTEX
  8
a_DXF_streams_nad27_edit
 10
542977
 20
3276594
 30
0.0
  0
VERTEX
  8
a_DXF_streams_nad27_edit
 10
542990
 20
3276666
 30
0.0
  0
VERTEX
  8
a_DXF_streams_nad27_edit
 10
542993
 20
3276759
 30
0.0
  0
VERTEX
  8
a_DXF_streams_nad27_edit
 10
542985
 20
3276791
 30
0.0
  0
VERTEX
  8
a_DXF_streams_nad27_edit
 10
542975
 20
3276807
 30
0.0
  0
VERTEX
  8
a_DXF_streams_nad27_edit
 10
542945
 20
3276833
 30
0.0
  0
VERTEX
  8
a_DXF_streams_nad27_edit
 10
542893
 20
3276887
 30
0.0
  0
SEQEND
  8
a_DXF_streams_nad27_edit
  0
POLYLINE
  8
a_DXF_streams_nad27_edit
 66
1
 40
47.9999845
 41
47.9999845
 62
5
 10
538965
 20
3276684
 30
0.0
  0
VERTEX
  8
a_DXF_streams_nad27_edit
 10
538965
 20
3276684
 30
0.0
  0
VERTEX
  8
a_DXF_streams_nad27_edit
 10
538949
 20
3276695
 30
0.0
  0
VERTEX
  8
a_DXF_streams_nad27_edit
 10
538895
 20
3276720
 30
0.0
  0
VERTEX
  8
a_DXF_streams_nad27_edit
 10
538853
 20
3276752
 30
0.0
  0
VERTEX
  8
a_DXF_streams_nad27_edit
 10
538614
 20
3276836
 30
0.0
  0
VERTEX
  8
a_DXF_streams_nad27_edit
 10
538330
 20
3276915
 30
0.0
  0
VERTEX
  8
a_DXF_streams_nad27_edit
 10
538277
 20
3276945
 30
0.0
  0
VERTEX
  8
a_DXF_streams_nad27_edit
 10
538211
 20
3277001
 30
0.0
  0
SEQEND
  8
a_DXF_streams_nad27_edit
  0
POLYLINE
  8
a_DXF_streams_nad27_edit
 66
1
 40
47.9999845
 41
47.9999845
 62
5
 10
546362
 20
3277032
 30
0.0
  0
VERTEX
  8
a_DXF_streams_nad27_edit
 10
546362
 20
3277032
 30
0.0
  0
VERTEX
  8
a_DXF_streams_nad27_edit
 10
546350
 20
3276982
 30
0.0
  0
SEQEND
  8
a_DXF_streams_nad27_edit
  0
POLYLINE
  8
a_DXF_streams_nad27_edit
 66
1
 40
47.9999845
 41
47.9999845
 62
5
 10
546578
 20
3276894
 30
0.0
  0
VERTEX
  8
a_DXF_streams_nad27_edit
 10
546578
 20
3276894
 30
0.0
  0
VERTEX
  8
a_DXF_streams_nad27_edit
 10
546465
 20
3276982
 30
0.0
  0
VERTEX
  8
a_DXF_streams_nad27_edit
 10
546362
 20
3277032
 30
0.0
  0
SEQEND
  8
a_DXF_streams_nad27_edit
  0
POLYLINE
  8
a_DXF_streams_nad27_edit
 66
1
 40
47.9999845
 41
47.9999845
 62
5
 10
546367
 20
3277048
 30
0.0
  0
VERTEX
  8
a_DXF_streams_nad27_edit
 10
546367
 20
3277048
 30
0.0
  0
VERTEX
  8
a_DXF_streams_nad27_edit
 10
546362
 20
3277032
 30
0.0
  0
SEQEND
  8
a_DXF_streams_nad27_edit
  0
POLYLINE
  8
a_DXF_streams_nad27_edit
 66
1
 40
47.9999845
 41
47.9999845
 62
5
 10
538211
 20
3277001
 30
0.0
  0
VERTEX
  8
a_DXF_streams_nad27_edit
 10
538211
 20
3277001
 30
0.0
  0
VERTEX
  8
a_DXF_streams_nad27_edit
 10
538195
 20
3277021
 30
0.0
  0
VERTEX
  8
a_DXF_streams_nad27_edit
 10
538140
 20
3277110
 30
0.0
  0
VERTEX
  8
a_DXF_streams_nad27_edit
 10
538088
 20
3277170
 30
0.0
  0
VERTEX
  8
a_DXF_streams_nad27_edit
 10
538032
 20
3277272
 30
0.0
  0
SEQEND
  8
a_DXF_streams_nad27_edit
  0
POLYLINE
  8
a_DXF_streams_nad27_edit
 66
1
 40
47.9999845
 41
47.9999845
 62
5
 10
542893
 20
3276887
 30
0.0
  0
VERTEX
  8
a_DXF_streams_nad27_edit
 10
542893
 20
3276887
 30
0.0
  0
VERTEX
  8
a_DXF_streams_nad27_edit
 10
542848
 20
3276952
 30
0.0
  0
VERTEX
  8
a_DXF_streams_nad27_edit
 10
542744
 20
3277128
 30
0.0
  0
VERTEX
  8
a_DXF_streams_nad27_edit
 10
542729
 20
3277200
 30
0.0
  0
VERTEX
  8
a_DXF_streams_nad27_edit
 10
542724
 20
3277302
 30
0.0
  0
SEQEND
  8
a_DXF_streams_nad27_edit
  0
POLYLINE
  8
a_DXF_streams_nad27_edit
 66
1
 40
47.9999845
 41
47.9999845
 62
5
 10
546367
 20
3277048
 30
0.0
  0
VERTEX
  8
a_DXF_streams_nad27_edit
 10
546367
 20
3277048
 30
0.0
  0
VERTEX
  8
a_DXF_streams_nad27_edit
 10
546323
 20
3277082
 30
0.0
  0
VERTEX
  8
a_DXF_streams_nad27_edit
 10
546259
 20
3277141
 30
0.0
  0
VERTEX
  8
a_DXF_streams_nad27_edit
 10
546210
 20
3277198
 30
0.0
  0
VERTEX
  8
a_DXF_streams_nad27_edit
 10
546164
 20
3277305
 30
0.0
  0
VERTEX
  8
a_DXF_streams_nad27_edit
 10
546140
 20
3277352
 30
0.0
  0
VERTEX
  8
a_DXF_streams_nad27_edit
 10
546105
 20
3277452
 30
0.0
  0
VERTEX
  8
a_DXF_streams_nad27_edit
 10
546089
 20
3277481
 30
0.0
  0
SEQEND
  8
a_DXF_streams_nad27_edit
  0
POLYLINE
  8
a_DXF_streams_nad27_edit
 66
1
 40
47.9999845
 41
47.9999845
 62
5
 10
542724
 20
3277302
 30
0.0
  0
VERTEX
  8
a_DXF_streams_nad27_edit
 10
542724
 20
3277302
 30
0.0
  0
VERTEX
  8
a_DXF_streams_nad27_edit
 10
542722
 20
3277321
 30
0.0
  0
VERTEX
  8
a_DXF_streams_nad27_edit
 10
542696
 20
3277383
 30
0.0
  0
VERTEX
  8
a_DXF_streams_nad27_edit
 10
542690
 20
3277404
 30
0.0
  0
VERTEX
  8
a_DXF_streams_nad27_edit
 10
542680
 20
3277486
 30
0.0
  0
VERTEX
  8
a_DXF_streams_nad27_edit
 10
542679
 20
3277538
 30
0.0
  0
SEQEND
  8
a_DXF_streams_nad27_edit
  0
POLYLINE
  8
a_DXF_streams_nad27_edit
 66
1
 40
47.9999845
 41
47.9999845
 62
5
 10
538032
 20
3277272
 30
0.0
  0
VERTEX
  8
a_DXF_streams_nad27_edit
 10
538032
 20
3277272
 30
0.0
  0
VERTEX
  8
a_DXF_streams_nad27_edit
 10
537963
 20
3277420
 30
0.0
  0
VERTEX
  8
a_DXF_streams_nad27_edit
 10
537934
 20
3277518
 30
0.0
  0
VERTEX
  8
a_DXF_streams_nad27_edit
 10
537914
 20
3277649
 30
0.0
  0
SEQEND
  8
a_DXF_streams_nad27_edit
  0
POLYLINE
  8
a_DXF_streams_nad27_edit
 66
1
 40
47.9999845
 41
47.9999845
 62
5
 10
542679
 20
3277538
 30
0.0
  0
VERTEX
  8
a_DXF_streams_nad27_edit
 10
542679
 20
3277538
 30
0.0
  0
VERTEX
  8
a_DXF_streams_nad27_edit
 10
542676
 20
3277643
 30
0.0
  0
VERTEX
  8
a_DXF_streams_nad27_edit
 10
542658
 20
3277679
 30
0.0
  0
VERTEX
  8
a_DXF_streams_nad27_edit
 10
542631
 20
3277696
 30
0.0
  0
SEQEND
  8
a_DXF_streams_nad27_edit
  0
POLYLINE
  8
a_DXF_streams_nad27_edit
 66
1
 40
47.9999845
 41
47.9999845
 62
5
 10
542631
 20
3277696
 30
0.0
  0
VERTEX
  8
a_DXF_streams_nad27_edit
 10
542631
 20
3277696
 30
0.0
  0
VERTEX
  8
a_DXF_streams_nad27_edit
 10
542570
 20
3277707
 30
0.0
  0
VERTEX
  8
a_DXF_streams_nad27_edit
 10
542478
 20
3277708
 30
0.0
  0
VERTEX
  8
a_DXF_streams_nad27_edit
 10
542403
 20
3277725
 30
0.0
  0
SEQEND
  8
a_DXF_streams_nad27_edit
  0
POLYLINE
  8
a_DXF_streams_nad27_edit
 66
1
 40
47.9999845
 41
47.9999845
 62
5
 10
546089
 20
3277481
 30
0.0
  0
VERTEX
  8
a_DXF_streams_nad27_edit
 10
546089
 20
3277481
 30
0.0
  0
VERTEX
  8
a_DXF_streams_nad27_edit
 10
546022
 20
3277676
 30
0.0
  0
VERTEX
  8
a_DXF_streams_nad27_edit
 10
546015
 20
3277687
 30
0.0
  0
VERTEX
  8
a_DXF_streams_nad27_edit
 10
545927
 20
3277749
 30
0.0
  0
VERTEX
  8
a_DXF_streams_nad27_edit
 10
545910
 20
3277752
 30
0.0
  0
VERTEX
  8
a_DXF_streams_nad27_edit
 10
545899
 20
3277759
 30
0.0
  0
VERTEX
  8
a_DXF_streams_nad27_edit
 10
545889
 20
3277773
 30
0.0
  0
SEQEND
  8
a_DXF_streams_nad27_edit
  0
POLYLINE
  8
a_DXF_streams_nad27_edit
 66
1
 40
47.9999845
 41
47.9999845
 62
5
 10
545889
 20
3277773
 30
0.0
  0
VERTEX
  8
a_DXF_streams_nad27_edit
 10
545889
 20
3277773
 30
0.0
  0
VERTEX
  8
a_DXF_streams_nad27_edit
 10
545891
 20
3277785
 30
0.0
  0
VERTEX
  8
a_DXF_streams_nad27_edit
 10
545898
 20
3277794
 30
0.0
  0
VERTEX
  8
a_DXF_streams_nad27_edit
 10
545919
 20
3277806
 30
0.0
  0
SEQEND
  8
a_DXF_streams_nad27_edit
  0
POLYLINE
  8
a_DXF_streams_nad27_edit
 66
1
 40
47.9999845
 41
47.9999845
 62
5
 10
542403
 20
3277725
 30
0.0
  0
VERTEX
  8
a_DXF_streams_nad27_edit
 10
542403
 20
3277725
 30
0.0
  0
VERTEX
  8
a_DXF_streams_nad27_edit
 10
542320
 20
3277753
 30
0.0
  0
VERTEX
  8
a_DXF_streams_nad27_edit
 10
542272
 20
3277786
 30
0.0
  0
VERTEX
  8
a_DXF_streams_nad27_edit
 10
542249
 20
3277812
 30
0.0
  0
VERTEX
  8
a_DXF_streams_nad27_edit
 10
542237
 20
3277832
 30
0.0
  0
VERTEX
  8
a_DXF_streams_nad27_edit
 10
542190
 20
3277919
 30
0.0
  0
SEQEND
  8
a_DXF_streams_nad27_edit
  0
POLYLINE
  8
a_DXF_streams_nad27_edit
 66
1
 40
47.9999845
 41
47.9999845
 62
5
 10
542190
 20
3277919
 30
0.0
  0
VERTEX
  8
a_DXF_streams_nad27_edit
 10
542190
 20
3277919
 30
0.0
  0
VERTEX
  8
a_DXF_streams_nad27_edit
 10
542159
 20
3277981
 30
0.0
  0
VERTEX
  8
a_DXF_streams_nad27_edit
 10
542148
 20
3277995
 30
0.0
  0
VERTEX
  8
a_DXF_streams_nad27_edit
 10
542037
 20
3278073
 30
0.0
  0
VERTEX
  8
a_DXF_streams_nad27_edit
 10
541990
 20
3278100
 30
0.0
  0
VERTEX
  8
a_DXF_streams_nad27_edit
 10
541912
 20
3278136
 30
0.0
  0
VERTEX
  8
a_DXF_streams_nad27_edit
 10
541821
 20
3278168
 30
0.0
  0
VERTEX
  8
a_DXF_streams_nad27_edit
 10
541775
 20
3278176
 30
0.0
  0
SEQEND
  8
a_DXF_streams_nad27_edit
  0
POLYLINE
  8
a_DXF_streams_nad27_edit
 66
1
 40
47.9999845
 41
47.9999845
 62
5
 10
537914
 20
3277649
 30
0.0
  0
VERTEX
  8
a_DXF_streams_nad27_edit
 10
537914
 20
3277649
 30
0.0
  0
VERTEX
  8
a_DXF_streams_nad27_edit
 10
537881
 20
3277864
 30
0.0
  0
VERTEX
  8
a_DXF_streams_nad27_edit
 10
537884
 20
3277934
 30
0.0
  0
VERTEX
  8
a_DXF_streams_nad27_edit
 10
537914
 20
3278078
 30
0.0
  0
VERTEX
  8
a_DXF_streams_nad27_edit
 10
537905
 20
3278126
 30
0.0
  0
VERTEX
  8
a_DXF_streams_nad27_edit
 10
537910
 20
3278159
 30
0.0
  0
VERTEX
  8
a_DXF_streams_nad27_edit
 10
537916
 20
3278166
 30
0.0
  0
VERTEX
  8
a_DXF_streams_nad27_edit
 10
537960
 20
3278182
 30
0.0
  0
VERTEX
  8
a_DXF_streams_nad27_edit
 10
537972
 20
3278197
 30
0.0
  0
VERTEX
  8
a_DXF_streams_nad27_edit
 10
537982
 20
3278225
 30
0.0
  0
VERTEX
  8
a_DXF_streams_nad27_edit
 10
537986
 20
3278253
 30
0.0
  0
VERTEX
  8
a_DXF_streams_nad27_edit
 10
537985
 20
3278271
 30
0.0
  0
VERTEX
  8
a_DXF_streams_nad27_edit
 10
537961
 20
3278354
 30
0.0
  0
VERTEX
  8
a_DXF_streams_nad27_edit
 10
537949
 20
3278382
 30
0.0
  0
VERTEX
  8
a_DXF_streams_nad27_edit
 10
537936
 20
3278399
 30
0.0
  0
VERTEX
  8
a_DXF_streams_nad27_edit
 10
537912
 20
3278416
 30
0.0
  0
VERTEX
  8
a_DXF_streams_nad27_edit
 10
537897
 20
3278420
 30
0.0
  0
VERTEX
  8
a_DXF_streams_nad27_edit
 10
537828
 20
3278418
 30
0.0
  0
SEQEND
  8
a_DXF_streams_nad27_edit
  0
POLYLINE
  8
a_DXF_streams_nad27_edit
 66
1
 40
47.9999845
 41
47.9999845
 62
5
 10
537828
 20
3278418
 30
0.0
  0
VERTEX
  8
a_DXF_streams_nad27_edit
 10
537828
 20
3278418
 30
0.0
  0
VERTEX
  8
a_DXF_streams_nad27_edit
 10
537795
 20
3278417
 30
0.0
  0
VERTEX
  8
a_DXF_streams_nad27_edit
 10
537738
 20
3278423
 30
0.0
  0
VERTEX
  8
a_DXF_streams_nad27_edit
 10
537719
 20
3278423
 30
0.0
  0
VERTEX
  8
a_DXF_streams_nad27_edit
 10
537595
 20
3278402
 30
0.0
  0
VERTEX
  8
a_DXF_streams_nad27_edit
 10
537574
 20
3278403
 30
0.0
  0
VERTEX
  8
a_DXF_streams_nad27_edit
 10
537564
 20
3278408
 30
0.0
  0
SEQEND
  8
a_DXF_streams_nad27_edit
  0
POLYLINE
  8
a_DXF_streams_nad27_edit
 66
1
 40
47.9999845
 41
47.9999845
 62
5
 10
537564
 20
3278408
 30
0.0
  0
VERTEX
  8
a_DXF_streams_nad27_edit
 10
537564
 20
3278408
 30
0.0
  0
VERTEX
  8
a_DXF_streams_nad27_edit
 10
537537
 20
3278425
 30
0.0
  0
VERTEX
  8
a_DXF_streams_nad27_edit
 10
537509
 20
3278462
 30
0.0
  0
VERTEX
  8
a_DXF_streams_nad27_edit
 10
537469
 20
3278526
 30
0.0
  0
VERTEX
  8
a_DXF_streams_nad27_edit
 10
537436
 20
3278594
 30
0.0
  0
SEQEND
  8
a_DXF_streams_nad27_edit
  0
POLYLINE
  8
a_DXF_streams_nad27_edit
 66
1
 40
47.9999845
 41
47.9999845
 62
5
 10
545919
 20
3277806
 30
0.0
  0
VERTEX
  8
a_DXF_streams_nad27_edit
 10
545919
 20
3277806
 30
0.0
  0
VERTEX
  8
a_DXF_streams_nad27_edit
 10
545907
 20
3277864
 30
0.0
  0
VERTEX
  8
a_DXF_streams_nad27_edit
 10
545927
 20
3278059
 30
0.0
  0
VERTEX
  8
a_DXF_streams_nad27_edit
 10
545973
 20
3278164
 30
0.0
  0
VERTEX
  8
a_DXF_streams_nad27_edit
 10
545974
 20
3278174
 30
0.0
  0
VERTEX
  8
a_DXF_streams_nad27_edit
 10
545970
 20
3278193
 30
0.0
  0
VERTEX
  8
a_DXF_streams_nad27_edit
 10
545952
 20
3278223
 30
0.0
  0
VERTEX
  8
a_DXF_streams_nad27_edit
 10
545913
 20
3278258
 30
0.0
  0
VERTEX
  8
a_DXF_streams_nad27_edit
 10
545851
 20
3278275
 30
0.0
  0
VERTEX
  8
a_DXF_streams_nad27_edit
 10
545748
 20
3278282
 30
0.0
  0
VERTEX
  8
a_DXF_streams_nad27_edit
 10
545713
 20
3278296
 30
0.0
  0
VERTEX
  8
a_DXF_streams_nad27_edit
 10
545472
 20
3278369
 30
0.0
  0
VERTEX
  8
a_DXF_streams_nad27_edit
 10
545455
 20
3278378
 30
0.0
  0
VERTEX
  8
a_DXF_streams_nad27_edit
 10
545441
 20
3278392
 30
0.0
  0
VERTEX
  8
a_DXF_streams_nad27_edit
 10
545383
 20
3278471
 30
0.0
  0
VERTEX
  8
a_DXF_streams_nad27_edit
 10
545332
 20
3278563
 30
0.0
  0
VERTEX
  8
a_DXF_streams_nad27_edit
 10
545303
 20
3278637
 30
0.0
  0
VERTEX
  8
a_DXF_streams_nad27_edit
 10
545284
 20
3278750
 30
0.0
  0
SEQEND
  8
a_DXF_streams_nad27_edit
  0
POLYLINE
  8
a_DXF_streams_nad27_edit
 66
1
 40
47.9999845
 41
47.9999845
 62
5
 10
545284
 20
3278750
 30
0.0
  0
VERTEX
  8
a_DXF_streams_nad27_edit
 10
545284
 20
3278750
 30
0.0
  0
VERTEX
  8
a_DXF_streams_nad27_edit
 10
545436
 20
3278764
 30
0.0
  0
VERTEX
  8
a_DXF_streams_nad27_edit
 10
545463
 20
3278770
 30
0.0
  0
VERTEX
  8
a_DXF_streams_nad27_edit
 10
545481
 20
3278777
 30
0.0
  0
VERTEX
  8
a_DXF_streams_nad27_edit
 10
545503
 20
3278792
 30
0.0
  0
VERTEX
  8
a_DXF_streams_nad27_edit
 10
545581
 20
3278856
 30
0.0
  0
VERTEX
  8
a_DXF_streams_nad27_edit
 10
545592
 20
3278874
 30
0.0
  0
SEQEND
  8
a_DXF_streams_nad27_edit
  0
POLYLINE
  8
a_DXF_streams_nad27_edit
 66
1
 40
47.9999845
 41
47.9999845
 62
5
 10
545592
 20
3278874
 30
0.0
  0
VERTEX
  8
a_DXF_streams_nad27_edit
 10
545592
 20
3278874
 30
0.0
  0
VERTEX
  8
a_DXF_streams_nad27_edit
 10
545602
 20
3278897
 30
0.0
  0
SEQEND
  8
a_DXF_streams_nad27_edit
  0
POLYLINE
  8
a_DXF_streams_nad27_edit
 66
1
 40
47.9999845
 41
47.9999845
 62
5
 10
545592
 20
3278874
 30
0.0
  0
VERTEX
  8
a_DXF_streams_nad27_edit
 10
545592
 20
3278874
 30
0.0
  0
VERTEX
  8
a_DXF_streams_nad27_edit
 10
545602
 20
3278897
 30
0.0
  0
SEQEND
  8
a_DXF_streams_nad27_edit
  0
POLYLINE
  8
a_DXF_streams_nad27_edit
 66
1
 40
47.9999845
 41
47.9999845
 62
5
 10
545602
 20
3278897
 30
0.0
  0
VERTEX
  8
a_DXF_streams_nad27_edit
 10
545602
 20
3278897
 30
0.0
  0
VERTEX
  8
a_DXF_streams_nad27_edit
 10
545608
 20
3278910
 30
0.0
  0
SEQEND
  8
a_DXF_streams_nad27_edit
  0
POLYLINE
  8
a_DXF_streams_nad27_edit
 66
1
 40
47.9999845
 41
47.9999845
 62
5
 10
545602
 20
3278897
 30
0.0
  0
VERTEX
  8
a_DXF_streams_nad27_edit
 10
545602
 20
3278897
 30
0.0
  0
VERTEX
  8
a_DXF_streams_nad27_edit
 10
545608
 20
3278910
 30
0.0
  0
SEQEND
  8
a_DXF_streams_nad27_edit
  0
POLYLINE
  8
a_DXF_streams_nad27_edit
 66
1
 40
47.9999845
 41
47.9999845
 62
5
 10
544962
 20
3278932
 30
0.0
  0
VERTEX
  8
a_DXF_streams_nad27_edit
 10
544962
 20
3278932
 30
0.0
  0
VERTEX
  8
a_DXF_streams_nad27_edit
 10
544951
 20
3278930
 30
0.0
  0
SEQEND
  8
a_DXF_streams_nad27_edit
  0
POLYLINE
  8
a_DXF_streams_nad27_edit
 66
1
 40
47.9999845
 41
47.9999845
 62
5
 10
544962
 20
3278932
 30
0.0
  0
VERTEX
  8
a_DXF_streams_nad27_edit
 10
544962
 20
3278932
 30
0.0
  0
VERTEX
  8
a_DXF_streams_nad27_edit
 10
544951
 20
3278930
 30
0.0
  0
SEQEND
  8
a_DXF_streams_nad27_edit
  0
POLYLINE
  8
a_DXF_streams_nad27_edit
 66
1
 40
47.9999845
 41
47.9999845
 62
5
 10
545284
 20
3278750
 30
0.0
  0
VERTEX
  8
a_DXF_streams_nad27_edit
 10
545284
 20
3278750
 30
0.0
  0
VERTEX
  8
a_DXF_streams_nad27_edit
 10
545266
 20
3278806
 30
0.0
  0
VERTEX
  8
a_DXF_streams_nad27_edit
 10
545236
 20
3278842
 30
0.0
  0
VERTEX
  8
a_DXF_streams_nad27_edit
 10
545145
 20
3278910
 30
0.0
  0
VERTEX
  8
a_DXF_streams_nad27_edit
 10
545125
 20
3278917
 30
0.0
  0
VERTEX
  8
a_DXF_streams_nad27_edit
 10
545092
 20
3278922
 30
0.0
  0
VERTEX
  8
a_DXF_streams_nad27_edit
 10
544973
 20
3278928
 30
0.0
  0
VERTEX
  8
a_DXF_streams_nad27_edit
 10
544962
 20
3278932
 30
0.0
  0
SEQEND
  8
a_DXF_streams_nad27_edit
  0
POLYLINE
  8
a_DXF_streams_nad27_edit
 66
1
 40
47.9999845
 41
47.9999845
 62
5
 10
544951
 20
3278930
 30
0.0
  0
VERTEX
  8
a_DXF_streams_nad27_edit
 10
544951
 20
3278930
 30
0.0
  0
VERTEX
  8
a_DXF_streams_nad27_edit
 10
544915
 20
3278963
 30
0.0
  0
VERTEX
  8
a_DXF_streams_nad27_edit
 10
544900
 20
3278982
 30
0.0
  0
VERTEX
  8
a_DXF_streams_nad27_edit
 10
544885
 20
3279015
 30
0.0
  0
VERTEX
  8
a_DXF_streams_nad27_edit
 10
544878
 20
3279042
 30
0.0
  0
VERTEX
  8
a_DXF_streams_nad27_edit
 10
544876
 20
3279067
 30
0.0
  0
SEQEND
  8
a_DXF_streams_nad27_edit
  0
POLYLINE
  8
a_DXF_streams_nad27_edit
 66
1
 40
47.9999845
 41
47.9999845
 62
5
 10
541775
 20
3278176
 30
0.0
  0
VERTEX
  8
a_DXF_streams_nad27_edit
 10
541775
 20
3278176
 30
0.0
  0
VERTEX
  8
a_DXF_streams_nad27_edit
 10
541720
 20
3278184
 30
0.0
  0
VERTEX
  8
a_DXF_streams_nad27_edit
 10
541668
 20
3278197
 30
0.0
  0
VERTEX
  8
a_DXF_streams_nad27_edit
 10
541584
 20
3278227
 30
0.0
  0
VERTEX
  8
a_DXF_streams_nad27_edit
 10
541550
 20
3278246
 30
0.0
  0
VERTEX
  8
a_DXF_streams_nad27_edit
 10
541488
 20
3278295
 30
0.0
  0
VERTEX
  8
a_DXF_streams_nad27_edit
 10
541441
 20
3278344
 30
0.0
  0
VERTEX
  8
a_DXF_streams_nad27_edit
 10
541420
 20
3278380
 30
0.0
  0
VERTEX
  8
a_DXF_streams_nad27_edit
 10
541416
 20
3278463
 30
0.0
  0
VERTEX
  8
a_DXF_streams_nad27_edit
 10
541422
 20
3278552
 30
0.0
  0
VERTEX
  8
a_DXF_streams_nad27_edit
 10
541421
 20
3278586
 30
0.0
  0
VERTEX
  8
a_DXF_streams_nad27_edit
 10
541415
 20
3278620
 30
0.0
  0
VERTEX
  8
a_DXF_streams_nad27_edit
 10
541406
 20
3278642
 30
0.0
  0
VERTEX
  8
a_DXF_streams_nad27_edit
 10
541390
 20
3278669
 30
0.0
  0
VERTEX
  8
a_DXF_streams_nad27_edit
 10
541350
 20
3278721
 30
0.0
  0
VERTEX
  8
a_DXF_streams_nad27_edit
 10
541311
 20
3278763
 30
0.0
  0
VERTEX
  8
a_DXF_streams_nad27_edit
 10
541294
 20
3278776
 30
0.0
  0
VERTEX
  8
a_DXF_streams_nad27_edit
 10
541240
 20
3278807
 30
0.0
  0
VERTEX
  8
a_DXF_streams_nad27_edit
 10
541124
 20
3278901
 30
0.0
  0
VERTEX
  8
a_DXF_streams_nad27_edit
 10
541060
 20
3278967
 30
0.0
  0
VERTEX
  8
a_DXF_streams_nad27_edit
 10
541036
 20
3279012
 30
0.0
  0
VERTEX
  8
a_DXF_streams_nad27_edit
 10
541011
 20
3279097
 30
0.0
  0
SEQEND
  8
a_DXF_streams_nad27_edit
  0
POLYLINE
  8
a_DXF_streams_nad27_edit
 66
1
 40
47.9999845
 41
47.9999845
 62
5
 10
537436
 20
3278594
 30
0.0
  0
VERTEX
  8
a_DXF_streams_nad27_edit
 10
537436
 20
3278594
 30
0.0
  0
VERTEX
  8
a_DXF_streams_nad27_edit
 10
537349
 20
3278875
 30
0.0
  0
VERTEX
  8
a_DXF_streams_nad27_edit
 10
537337
 20
3278896
 30
0.0
  0
VERTEX
  8
a_DXF_streams_nad27_edit
 10
537095
 20
3279155
 30
0.0
  0
VERTEX
  8
a_DXF_streams_nad27_edit
 10
536947
 20
3279320
 30
0.0
  0
VERTEX
  8
a_DXF_streams_nad27_edit
 10
536901
 20
3279378
 30
0.0
  0
SEQEND
  8
a_DXF_streams_nad27_edit
  0
POLYLINE
  8
a_DXF_streams_nad27_edit
 66
1
 40
47.9999845
 41
47.9999845
 62
5
 10
536901
 20
3279378
 30
0.0
  0
VERTEX
  8
a_DXF_streams_nad27_edit
 10
536901
 20
3279378
 30
0.0
  0
VERTEX
  8
a_DXF_streams_nad27_edit
 10
536887
 20
3279396
 30
0.0
  0
SEQEND
  8
a_DXF_streams_nad27_edit
  0
POLYLINE
  8
a_DXF_streams_nad27_edit
 66
1
 40
47.9999845
 41
47.9999845
 62
5
 10
536887
 20
3279396
 30
0.0
  0
VERTEX
  8
a_DXF_streams_nad27_edit
 10
536887
 20
3279396
 30
0.0
  0
VERTEX
  8
a_DXF_streams_nad27_edit
 10
536865.478
 20
3279426.02
 30
0.0
  0
VERTEX
  8
a_DXF_streams_nad27_edit
 10
536844.697
 20
3279456.52
 30
0.0
  0
VERTEX
  8
a_DXF_streams_nad27_edit
 10
536823.876
 20
3279487.18
 30
0.0
  0
VERTEX
  8
a_DXF_streams_nad27_edit
 10
536802.786
 20
3279517.91
 30
0.0
  0
VERTEX
  8
a_DXF_streams_nad27_edit
 10
536783.386
 20
3279549.5
 30
0.0
  0
VERTEX
  8
a_DXF_streams_nad27_edit
 10
536768.166
 20
3279582.94
 30
0.0
  0
VERTEX
  8
a_DXF_streams_nad27_edit
 10
536757.49
 20
3279618.35
 30
0.0
  0
VERTEX
  8
a_DXF_streams_nad27_edit
 10
536746.261
 20
3279653.52
 30
0.0
  0
VERTEX
  8
a_DXF_streams_nad27_edit
 10
536731.548
 20
3279687.2
 30
0.0
  0
VERTEX
  8
a_DXF_streams_nad27_edit
 10
536673
 20
3279778
 30
0.0
  0
SEQEND
  8
a_DXF_streams_nad27_edit
  0
POLYLINE
  8
a_DXF_streams_nad27_edit
 66
1
 40
47.9999845
 41
47.9999845
 62
5
 10
541011
 20
3279097
 30
0.0
  0
VERTEX
  8
a_DXF_streams_nad27_edit
 10
541011
 20
3279097
 30
0.0
  0
VERTEX
  8
a_DXF_streams_nad27_edit
 10
540991
 20
3279151
 30
0.0
  0
VERTEX
  8
a_DXF_streams_nad27_edit
 10
540984
 20
3279159
 30
0.0
  0
VERTEX
  8
a_DXF_streams_nad27_edit
 10
540949
 20
3279191
 30
0.0
  0
VERTEX
  8
a_DXF_streams_nad27_edit
 10
540927
 20
3279221
 30
0.0
  0
VERTEX
  8
a_DXF_streams_nad27_edit
 10
540878
 20
3279304
 30
0.0
  0
VERTEX
  8
a_DXF_streams_nad27_edit
 10
540847
 20
3279337
 30
0.0
  0
VERTEX
  8
a_DXF_streams_nad27_edit
 10
540781
 20
3279362
 30
0.0
  0
VERTEX
  8
a_DXF_streams_nad27_edit
 10
540727
 20
3279401
 30
0.0
  0
VERTEX
  8
a_DXF_streams_nad27_edit
 10
540686
 20
3279447
 30
0.0
  0
VERTEX
  8
a_DXF_streams_nad27_edit
 10
540609
 20
3279548
 30
0.0
  0
VERTEX
  8
a_DXF_streams_nad27_edit
 10
540549
 20
3279605
 30
0.0
  0
VERTEX
  8
a_DXF_streams_nad27_edit
 10
540505
 20
3279665
 30
0.0
  0
VERTEX
  8
a_DXF_streams_nad27_edit
 10
540496
 20
3279688
 30
0.0
  0
VERTEX
  8
a_DXF_streams_nad27_edit
 10
540461
 20
3279831
 30
0.0
  0
VERTEX
  8
a_DXF_streams_nad27_edit
 10
540444
 20
3279881
 30
0.0
  0
VERTEX
  8
a_DXF_streams_nad27_edit
 10
540426
 20
3279910
 30
0.0
  0
VERTEX
  8
a_DXF_streams_nad27_edit
 10
540405
 20
3279933
 30
0.0
  0
SEQEND
  8
a_DXF_streams_nad27_edit
  0
POLYLINE
  8
a_DXF_streams_nad27_edit
 66
1
 40
47.9999845
 41
47.9999845
 62
5
 10
536673
 20
3279778
 30
0.0
  0
VERTEX
  8
a_DXF_streams_nad27_edit
 10
536673
 20
3279778
 30
0.0
  0
VERTEX
  8
a_DXF_streams_nad27_edit
 10
536666
 20
3279798
 30
0.0
  0
VERTEX
  8
a_DXF_streams_nad27_edit
 10
536659
 20
3279863
 30
0.0
  0
VERTEX
  8
a_DXF_streams_nad27_edit
 10
536639
 20
3279945
 30
0.0
  0
VERTEX
  8
a_DXF_streams_nad27_edit
 10
536633
 20
3279954
 30
0.0
  0
VERTEX
  8
a_DXF_streams_nad27_edit
 10
536581
 20
3279971
 30
0.0
  0
VERTEX
  8
a_DXF_streams_nad27_edit
 10
536568
 20
3279984
 30
0.0
  0
SEQEND
  8
a_DXF_streams_nad27_edit
  0
POLYLINE
  8
a_DXF_streams_nad27_edit
 66
1
 40
47.9999845
 41
47.9999845
 62
5
 10
540405
 20
3279933
 30
0.0
  0
VERTEX
  8
a_DXF_streams_nad27_edit
 10
540405
 20
3279933
 30
0.0
  0
VERTEX
  8
a_DXF_streams_nad27_edit
 10
540327
 20
3280010
 30
0.0
  0
VERTEX
  8
a_DXF_streams_nad27_edit
 10
540297
 20
3280033
 30
0.0
  0
VERTEX
  8
a_DXF_streams_nad27_edit
 10
540264
 20
3280052
 30
0.0
  0
VERTEX
  8
a_DXF_streams_nad27_edit
 10
540208
 20
3280073
 30
0.0
  0
VERTEX
  8
a_DXF_streams_nad27_edit
 10
540153
 20
3280075
 30
0.0
  0
VERTEX
  8
a_DXF_streams_nad27_edit
 10
539980
 20
3280053
 30
0.0
  0
VERTEX
  8
a_DXF_streams_nad27_edit
 10
539890
 20
3280047
 30
0.0
  0
SEQEND
  8
a_DXF_streams_nad27_edit
  0
POLYLINE
  8
a_DXF_streams_nad27_edit
 66
1
 40
47.9999845
 41
47.9999845
 62
5
 10
540405
 20
3279933
 30
0.0
  0
VERTEX
  8
a_DXF_streams_nad27_edit
 10
540405
 20
3279933
 30
0.0
  0
VERTEX
  8
a_DXF_streams_nad27_edit
 10
540383
 20
3280012
 30
0.0
  0
VERTEX
  8
a_DXF_streams_nad27_edit
 10
540413
 20
3280102
 30
0.0
  0
VERTEX
  8
a_DXF_streams_nad27_edit
 10
540414
 20
3280119
 30
0.0
  0
VERTEX
  8
a_DXF_streams_nad27_edit
 10
540412
 20
3280134
 30
0.0
  0
SEQEND
  8
a_DXF_streams_nad27_edit
  0
POLYLINE
  8
a_DXF_streams_nad27_edit
 66
1
 40
47.9999845
 41
47.9999845
 62
5
 10
539890
 20
3280047
 30
0.0
  0
VERTEX
  8
a_DXF_streams_nad27_edit
 10
539890
 20
3280047
 30
0.0
  0
VERTEX
  8
a_DXF_streams_nad27_edit
 10
539826
 20
3280053
 30
0.0
  0
VERTEX
  8
a_DXF_streams_nad27_edit
 10
539742
 20
3280080
 30
0.0
  0
VERTEX
  8
a_DXF_streams_nad27_edit
 10
539642
 20
3280125
 30
0.0
  0
VERTEX
  8
a_DXF_streams_nad27_edit
 10
539563
 20
3280176
 30
0.0
  0
SEQEND
  8
a_DXF_streams_nad27_edit
  0
POLYLINE
  8
a_DXF_streams_nad27_edit
 66
1
 40
47.9999845
 41
47.9999845
 62
5
 10
544876
 20
3279067
 30
0.0
  0
VERTEX
  8
a_DXF_streams_nad27_edit
 10
544876
 20
3279067
 30
0.0
  0
VERTEX
  8
a_DXF_streams_nad27_edit
 10
544871
 20
3279139
 30
0.0
  0
VERTEX
  8
a_DXF_streams_nad27_edit
 10
544870
 20
3279273
 30
0.0
  0
VERTEX
  8
a_DXF_streams_nad27_edit
 10
544859
 20
3279459
 30
0.0
  0
VERTEX
  8
a_DXF_streams_nad27_edit
 10
544861
 20
3279515
 30
0.0
  0
VERTEX
  8
a_DXF_streams_nad27_edit
 10
544866
 20
3279552
 30
0.0
  0
VERTEX
  8
a_DXF_streams_nad27_edit
 10
544876
 20
3279589
 30
0.0
  0
VERTEX
  8
a_DXF_streams_nad27_edit
 10
544917
 20
3279697
 30
0.0
  0
VERTEX
  8
a_DXF_streams_nad27_edit
 10
544960
 20
3279778
 30
0.0
  0
VERTEX
  8
a_DXF_streams_nad27_edit
 10
544971
 20
3279806
 30
0.0
  0
VERTEX
  8
a_DXF_streams_nad27_edit
 10
544983
 20
3279898
 30
0.0
  0
VERTEX
  8
a_DXF_streams_nad27_edit
 10
544995
 20
3280155
 30
0.0
  0
VERTEX
  8
a_DXF_streams_nad27_edit
 10
544993
 20
3280199
 30
0.0
  0
VERTEX
  8
a_DXF_streams_nad27_edit
 10
544975
 20
3280270
 30
0.0
  0
SEQEND
  8
a_DXF_streams_nad27_edit
  0
POLYLINE
  8
a_DXF_streams_nad27_edit
 66
1
 40
47.9999845
 41
47.9999845
 62
5
 10
545109
 20
3280322
 30
0.0
  0
VERTEX
  8
a_DXF_streams_nad27_edit
 10
545109
 20
3280322
 30
0.0
  0
VERTEX
  8
a_DXF_streams_nad27_edit
 10
544975
 20
3280270
 30
0.0
  0
SEQEND
  8
a_DXF_streams_nad27_edit
  0
POLYLINE
  8
a_DXF_streams_nad27_edit
 66
1
 40
47.9999845
 41
47.9999845
 62
5
 10
545608
 20
3278910
 30
0.0
  0
VERTEX
  8
a_DXF_streams_nad27_edit
 10
545608
 20
3278910
 30
0.0
  0
VERTEX
  8
a_DXF_streams_nad27_edit
 10
545609
 20
3278944
 30
0.0
  0
VERTEX
  8
a_DXF_streams_nad27_edit
 10
545606
 20
3279054
 30
0.0
  0
VERTEX
  8
a_DXF_streams_nad27_edit
 10
545612
 20
3279178
 30
0.0
  0
VERTEX
  8
a_DXF_streams_nad27_edit
 10
545599
 20
3279353
 30
0.0
  0
VERTEX
  8
a_DXF_streams_nad27_edit
 10
545586
 20
3279440
 30
0.0
  0
VERTEX
  8
a_DXF_streams_nad27_edit
 10
545571
 20
3279469
 30
0.0
  0
VERTEX
  8
a_DXF_streams_nad27_edit
 10
545536
 20
3279508
 30
0.0
  0
VERTEX
  8
a_DXF_streams_nad27_edit
 10
545399
 20
3279587
 30
0.0
  0
VERTEX
  8
a_DXF_streams_nad27_edit
 10
545367
 20
3279610
 30
0.0
  0
VERTEX
  8
a_DXF_streams_nad27_edit
 10
545349
 20
3279629
 30
0.0
  0
VERTEX
  8
a_DXF_streams_nad27_edit
 10
545326
 20
3279667
 30
0.0
  0
VERTEX
  8
a_DXF_streams_nad27_edit
 10
545285
 20
3279775
 30
0.0
  0
VERTEX
  8
a_DXF_streams_nad27_edit
 10
545264
 20
3279842
 30
0.0
  0
VERTEX
  8
a_DXF_streams_nad27_edit
 10
545259
 20
3279925
 30
0.0
  0
VERTEX
  8
a_DXF_streams_nad27_edit
 10
545255
 20
3279953
 30
0.0
  0
VERTEX
  8
a_DXF_streams_nad27_edit
 10
545246
 20
3279981
 30
0.0
  0
VERTEX
  8
a_DXF_streams_nad27_edit
 10
545211
 20
3280034
 30
0.0
  0
VERTEX
  8
a_DXF_streams_nad27_edit
 10
545162
 20
3280073
 30
0.0
  0
VERTEX
  8
a_DXF_streams_nad27_edit
 10
545133
 20
3280114
 30
0.0
  0
VERTEX
  8
a_DXF_streams_nad27_edit
 10
545127
 20
3280147
 30
0.0
  0
VERTEX
  8
a_DXF_streams_nad27_edit
 10
545133
 20
3280201
 30
0.0
  0
VERTEX
  8
a_DXF_streams_nad27_edit
 10
545130
 20
3280261
 30
0.0
  0
VERTEX
  8
a_DXF_streams_nad27_edit
 10
545109
 20
3280322
 30
0.0
  0
SEQEND
  8
a_DXF_streams_nad27_edit
  0
POLYLINE
  8
a_DXF_streams_nad27_edit
 66
1
 40
47.9999845
 41
47.9999845
 62
5
 10
545161
 20
3280342
 30
0.0
  0
VERTEX
  8
a_DXF_streams_nad27_edit
 10
545161
 20
3280342
 30
0.0
  0
VERTEX
  8
a_DXF_streams_nad27_edit
 10
545109
 20
3280322
 30
0.0
  0
SEQEND
  8
a_DXF_streams_nad27_edit
  0
POLYLINE
  8
a_DXF_streams_nad27_edit
 66
1
 40
47.9999845
 41
47.9999845
 62
5
 10
538932
 20
3280642
 30
0.0
  0
VERTEX
  8
a_DXF_streams_nad27_edit
 10
538932
 20
3280642
 30
0.0
  0
VERTEX
  8
a_DXF_streams_nad27_edit
 10
538824
 20
3280521
 30
0.0
  0
SEQEND
  8
a_DXF_streams_nad27_edit
  0
POLYLINE
  8
a_DXF_streams_nad27_edit
 66
1
 40
47.9999845
 41
47.9999845
 62
5
 10
536568
 20
3279984
 30
0.0
  0
VERTEX
  8
a_DXF_streams_nad27_edit
 10
536568
 20
3279984
 30
0.0
  0
VERTEX
  8
a_DXF_streams_nad27_edit
 10
536559.649
 20
3280020.38
 30
0.0
  0
VERTEX
  8
a_DXF_streams_nad27_edit
 10
536550.581
 20
3280056.46
 30
0.0
  0
VERTEX
  8
a_DXF_streams_nad27_edit
 10
536540.369
 20
3280092.09
 30
0.0
  0
VERTEX
  8
a_DXF_streams_nad27_edit
 10
536528.582
 20
3280127.09
 30
0.0
  0
VERTEX
  8
a_DXF_streams_nad27_edit
 10
536514.791
 20
3280161.32
 30
0.0
  0
VERTEX
  8
a_DXF_streams_nad27_edit
 10
536498.57
 20
3280194.59
 30
0.0
  0
VERTEX
  8
a_DXF_streams_nad27_edit
 10
536480.858
 20
3280227.29
 30
0.0
  0
VERTEX
  8
a_DXF_streams_nad27_edit
 10
536466.209
 20
3280261.11
 30
0.0
  0
VERTEX
  8
a_DXF_streams_nad27_edit
 10
536458.367
 20
3280297.17
 30
0.0
  0
VERTEX
  8
a_DXF_streams_nad27_edit
 10
536454.374
 20
3280333.31
 30
0.0
  0
VERTEX
  8
a_DXF_streams_nad27_edit
 10
536451.857
 20
3280369.51
 30
0.0
  0
VERTEX
  8
a_DXF_streams_nad27_edit
 10
536449.02
 20
3280406.44
 30
0.0
  0
VERTEX
  8
a_DXF_streams_nad27_edit
 10
536444.08
 20
3280444.74
 30
0.0
  0
VERTEX
  8
a_DXF_streams_nad27_edit
 10
536440.103
 20
3280483.32
 30
0.0
  0
VERTEX
  8
a_DXF_streams_nad27_edit
 10
536452.516
 20
3280516.61
 30
0.0
  0
VERTEX
  8
a_DXF_streams_nad27_edit
 10
536473.931
 20
3280546.71
 30
0.0
  0
VERTEX
  8
a_DXF_streams_nad27_edit
 10
536468.755
 20
3280583.44
 30
0.0
  0
VERTEX
  8
a_DXF_streams_nad27_edit
 10
536451.496
 20
3280615.78
 30
0.0
  0
VERTEX
  8
a_DXF_streams_nad27_edit
 10
536426.63
 20
3280643.21
 30
0.0
  0
VERTEX
  8
a_DXF_streams_nad27_edit
 10
536404.868
 20
3280673.1
 30
0.0
  0
VERTEX
  8
a_DXF_streams_nad27_edit
 10
536402
 20
3280772
 30
0.0
  0
SEQEND
  8
a_DXF_streams_nad27_edit
  0
POLYLINE
  8
a_DXF_streams_nad27_edit
 66
1
 40
47.9999845
 41
47.9999845
 62
5
 10
544975
 20
3280270
 30
0.0
  0
VERTEX
  8
a_DXF_streams_nad27_edit
 10
544975
 20
3280270
 30
0.0
  0
VERTEX
  8
a_DXF_streams_nad27_edit
 10
544946
 20
3280310
 30
0.0
  0
VERTEX
  8
a_DXF_streams_nad27_edit
 10
544860
 20
3280413
 30
0.0
  0
VERTEX
  8
a_DXF_streams_nad27_edit
 10
544831
 20
3280428
 30
0.0
  0
VERTEX
  8
a_DXF_streams_nad27_edit
 10
544779
 20
3280442
 30
0.0
  0
VERTEX
  8
a_DXF_streams_nad27_edit
 10
544772
 20
3280452
 30
0.0
  0
VERTEX
  8
a_DXF_streams_nad27_edit
 10
544773
 20
3280463
 30
0.0
  0
VERTEX
  8
a_DXF_streams_nad27_edit
 10
544804
 20
3280475
 30
0.0
  0
VERTEX
  8
a_DXF_streams_nad27_edit
 10
544818
 20
3280488
 30
0.0
  0
VERTEX
  8
a_DXF_streams_nad27_edit
 10
544826
 20
3280518
 30
0.0
  0
VERTEX
  8
a_DXF_streams_nad27_edit
 10
544827
 20
3280547
 30
0.0
  0
VERTEX
  8
a_DXF_streams_nad27_edit
 10
544817
 20
3280607
 30
0.0
  0
VERTEX
  8
a_DXF_streams_nad27_edit
 10
544796
 20
3280649
 30
0.0
  0
VERTEX
  8
a_DXF_streams_nad27_edit
 10
544797
 20
3280682
 30
0.0
  0
VERTEX
  8
a_DXF_streams_nad27_edit
 10
544786
 20
3280737
 30
0.0
  0
VERTEX
  8
a_DXF_streams_nad27_edit
 10
544768
 20
3280777
 30
0.0
  0
VERTEX
  8
a_DXF_streams_nad27_edit
 10
544767
 20
3280788
 30
0.0
  0
SEQEND
  8
a_DXF_streams_nad27_edit
  0
POLYLINE
  8
a_DXF_streams_nad27_edit
 66
1
 40
47.9999845
 41
47.9999845
 62
5
 10
544767
 20
3280788
 30
0.0
  0
VERTEX
  8
a_DXF_streams_nad27_edit
 10
544767
 20
3280788
 30
0.0
  0
VERTEX
  8
a_DXF_streams_nad27_edit
 10
544778
 20
3280785
 30
0.0
  0
VERTEX
  8
a_DXF_streams_nad27_edit
 10
544804
 20
3280767
 30
0.0
  0
VERTEX
  8
a_DXF_streams_nad27_edit
 10
544837
 20
3280732
 30
0.0
  0
VERTEX
  8
a_DXF_streams_nad27_edit
 10
544880
 20
3280673
 30
0.0
  0
VERTEX
  8
a_DXF_streams_nad27_edit
 10
544925
 20
3280582
 30
0.0
  0
VERTEX
  8
a_DXF_streams_nad27_edit
 10
544946
 20
3280570
 30
0.0
  0
VERTEX
  8
a_DXF_streams_nad27_edit
 10
544961
 20
3280584
 30
0.0
  0
VERTEX
  8
a_DXF_streams_nad27_edit
 10
545013
 20
3280575
 30
0.0
  0
VERTEX
  8
a_DXF_streams_nad27_edit
 10
545057
 20
3280579
 30
0.0
  0
VERTEX
  8
a_DXF_streams_nad27_edit
 10
545118
 20
3280603
 30
0.0
  0
VERTEX
  8
a_DXF_streams_nad27_edit
 10
545122
 20
3280594
 30
0.0
  0
VERTEX
  8
a_DXF_streams_nad27_edit
 10
545111
 20
3280571
 30
0.0
  0
VERTEX
  8
a_DXF_streams_nad27_edit
 10
545071
 20
3280533
 30
0.0
  0
VERTEX
  8
a_DXF_streams_nad27_edit
 10
545070
 20
3280522
 30
0.0
  0
VERTEX
  8
a_DXF_streams_nad27_edit
 10
545107
 20
3280520
 30
0.0
  0
VERTEX
  8
a_DXF_streams_nad27_edit
 10
545116
 20
3280505
 30
0.0
  0
VERTEX
  8
a_DXF_streams_nad27_edit
 10
545107
 20
3280483
 30
0.0
  0
VERTEX
  8
a_DXF_streams_nad27_edit
 10
545138
 20
3280452
 30
0.0
  0
VERTEX
  8
a_DXF_streams_nad27_edit
 10
545145
 20
3280440
 30
0.0
  0
VERTEX
  8
a_DXF_streams_nad27_edit
 10
545148
 20
3280422
 30
0.0
  0
VERTEX
  8
a_DXF_streams_nad27_edit
 10
545147
 20
3280398
 30
0.0
  0
VERTEX
  8
a_DXF_streams_nad27_edit
 10
545134
 20
3280381
 30
0.0
  0
VERTEX
  8
a_DXF_streams_nad27_edit
 10
545133
 20
3280369
 30
0.0
  0
VERTEX
  8
a_DXF_streams_nad27_edit
 10
545139
 20
3280358
 30
0.0
  0
VERTEX
  8
a_DXF_streams_nad27_edit
 10
545161
 20
3280342
 30
0.0
  0
SEQEND
  8
a_DXF_streams_nad27_edit
  0
POLYLINE
  8
a_DXF_streams_nad27_edit
 66
1
 40
47.9999845
 41
47.9999845
 62
5
 10
536402
 20
3280772
 30
0.0
  0
VERTEX
  8
a_DXF_streams_nad27_edit
 10
536402
 20
3280772
 30
0.0
  0
VERTEX
  8
a_DXF_streams_nad27_edit
 10
536438
 20
3280794
 30
0.0
  0
VERTEX
  8
a_DXF_streams_nad27_edit
 10
536447
 20
3280804
 30
0.0
  0
SEQEND
  8
a_DXF_streams_nad27_edit
  0
POLYLINE
  8
a_DXF_streams_nad27_edit
 66
1
 40
47.9999845
 41
47.9999845
 62
5
 10
544767
 20
3280788
 30
0.0
  0
VERTEX
  8
a_DXF_streams_nad27_edit
 10
544767
 20
3280788
 30
0.0
  0
VERTEX
  8
a_DXF_streams_nad27_edit
 10
544749
 20
3280819
 30
0.0
  0
SEQEND
  8
a_DXF_streams_nad27_edit
  0
POLYLINE
  8
a_DXF_streams_nad27_edit
 66
1
 40
47.9999845
 41
47.9999845
 62
5
 10
539095
 20
3280824
 30
0.0
  0
VERTEX
  8
a_DXF_streams_nad27_edit
 10
539095
 20
3280824
 30
0.0
  0
VERTEX
  8
a_DXF_streams_nad27_edit
 10
538932
 20
3280642
 30
0.0
  0
SEQEND
  8
a_DXF_streams_nad27_edit
  0
POLYLINE
  8
a_DXF_streams_nad27_edit
 66
1
 40
47.9999845
 41
47.9999845
 62
5
 10
539563
 20
3280176
 30
0.0
  0
VERTEX
  8
a_DXF_streams_nad27_edit
 10
539563
 20
3280176
 30
0.0
  0
VERTEX
  8
a_DXF_streams_nad27_edit
 10
539498
 20
3280242
 30
0.0
  0
VERTEX
  8
a_DXF_streams_nad27_edit
 10
539424
 20
3280342
 30
0.0
  0
VERTEX
  8
a_DXF_streams_nad27_edit
 10
539403
 20
3280378
 30
0.0
  0
VERTEX
  8
a_DXF_streams_nad27_edit
 10
539346
 20
3280503
 30
0.0
  0
VERTEX
  8
a_DXF_streams_nad27_edit
 10
539300
 20
3280591
 30
0.0
  0
VERTEX
  8
a_DXF_streams_nad27_edit
 10
539280
 20
3280616
 30
0.0
  0
VERTEX
  8
a_DXF_streams_nad27_edit
 10
539129
 20
3280731
 30
0.0
  0
VERTEX
  8
a_DXF_streams_nad27_edit
 10
539120
 20
3280743
 30
0.0
  0
VERTEX
  8
a_DXF_streams_nad27_edit
 10
539095
 20
3280824
 30
0.0
  0
SEQEND
  8
a_DXF_streams_nad27_edit
  0
POLYLINE
  8
a_DXF_streams_nad27_edit
 66
1
 40
47.9999845
 41
47.9999845
 62
5
 10
538932
 20
3280642
 30
0.0
  0
VERTEX
  8
a_DXF_streams_nad27_edit
 10
538932
 20
3280642
 30
0.0
  0
VERTEX
  8
a_DXF_streams_nad27_edit
 10
538885
 20
3280702
 30
0.0
  0
VERTEX
  8
a_DXF_streams_nad27_edit
 10
538832
 20
3280816
 30
0.0
  0
VERTEX
  8
a_DXF_streams_nad27_edit
 10
538803
 20
3280888
 30
0.0
  0
SEQEND
  8
a_DXF_streams_nad27_edit
  0
POLYLINE
  8
a_DXF_streams_nad27_edit
 66
1
 40
47.9999845
 41
47.9999845
 62
5
 10
539217
 20
3280962
 30
0.0
  0
VERTEX
  8
a_DXF_streams_nad27_edit
 10
539217
 20
3280962
 30
0.0
  0
VERTEX
  8
a_DXF_streams_nad27_edit
 10
539095
 20
3280824
 30
0.0
  0
SEQEND
  8
a_DXF_streams_nad27_edit
  0
POLYLINE
  8
a_DXF_streams_nad27_edit
 66
1
 40
47.9999845
 41
47.9999845
 62
5
 10
539259
 20
3281009
 30
0.0
  0
VERTEX
  8
a_DXF_streams_nad27_edit
 10
539259
 20
3281009
 30
0.0
  0
VERTEX
  8
a_DXF_streams_nad27_edit
 10
539217
 20
3280962
 30
0.0
  0
SEQEND
  8
a_DXF_streams_nad27_edit
  0
POLYLINE
  8
a_DXF_streams_nad27_edit
 66
1
 40
47.9999845
 41
47.9999845
 62
5
 10
544749
 20
3280819
 30
0.0
  0
VERTEX
  8
a_DXF_streams_nad27_edit
 10
544749
 20
3280819
 30
0.0
  0
VERTEX
  8
a_DXF_streams_nad27_edit
 10
544735
 20
3280843
 30
0.0
  0
VERTEX
  8
a_DXF_streams_nad27_edit
 10
544721
 20
3280883
 30
0.0
  0
VERTEX
  8
a_DXF_streams_nad27_edit
 10
544715
 20
3280896
 30
0.0
  0
VERTEX
  8
a_DXF_streams_nad27_edit
 10
544707
 20
3280902
 30
0.0
  0
VERTEX
  8
a_DXF_streams_nad27_edit
 10
544660
 20
3280912
 30
0.0
  0
VERTEX
  8
a_DXF_streams_nad27_edit
 10
544614
 20
3280948
 30
0.0
  0
VERTEX
  8
a_DXF_streams_nad27_edit
 10
544357
 20
3281183
 30
0.0
  0
VERTEX
  8
a_DXF_streams_nad27_edit
 10
544340
 20
3281205
 30
0.0
  0
SEQEND
  8
a_DXF_streams_nad27_edit
  0
POLYLINE
  8
a_DXF_streams_nad27_edit
 66
1
 40
47.9999845
 41
47.9999845
 62
5
 10
540412
 20
3280134
 30
0.0
  0
VERTEX
  8
a_DXF_streams_nad27_edit
 10
540412
 20
3280134
 30
0.0
  0
VERTEX
  8
a_DXF_streams_nad27_edit
 10
540357
 20
3280374
 30
0.0
  0
VERTEX
  8
a_DXF_streams_nad27_edit
 10
540324
 20
3280458
 30
0.0
  0
VERTEX
  8
a_DXF_streams_nad27_edit
 10
540297
 20
3280677
 30
0.0
  0
VERTEX
  8
a_DXF_streams_nad27_edit
 10
540298
 20
3280699
 30
0.0
  0
VERTEX
  8
a_DXF_streams_nad27_edit
 10
540312
 20
3280772
 30
0.0
  0
VERTEX
  8
a_DXF_streams_nad27_edit
 10
540337
 20
3280841
 30
0.0
  0
VERTEX
  8
a_DXF_streams_nad27_edit
 10
540367
 20
3280906
 30
0.0
  0
VERTEX
  8
a_DXF_streams_nad27_edit
 10
540430
 20
3281022
 30
0.0
  0
VERTEX
  8
a_DXF_streams_nad27_edit
 10
540451
 20
3281053
 30
0.0
  0
VERTEX
  8
a_DXF_streams_nad27_edit
 10
540477
 20
3281081
 30
0.0
  0
VERTEX
  8
a_DXF_streams_nad27_edit
 10
540535
 20
3281129
 30
0.0
  0
VERTEX
  8
a_DXF_streams_nad27_edit
 10
540599
 20
3281169
 30
0.0
  0
VERTEX
  8
a_DXF_streams_nad27_edit
 10
540674
 20
3281203
 30
0.0
  0
VERTEX
  8
a_DXF_streams_nad27_edit
 10
540734
 20
3281245
 30
0.0
  0
VERTEX
  8
a_DXF_streams_nad27_edit
 10
540751
 20
3281262
 30
0.0
  0
VERTEX
  8
a_DXF_streams_nad27_edit
 10
540794
 20
3281319
 30
0.0
  0
SEQEND
  8
a_DXF_streams_nad27_edit
  0
POLYLINE
  8
a_DXF_streams_nad27_edit
 66
1
 40
47.9999845
 41
47.9999845
 62
5
 10
540920
 20
3281260
 30
0.0
  0
VERTEX
  8
a_DXF_streams_nad27_edit
 10
540920
 20
3281260
 30
0.0
  0
VERTEX
  8
a_DXF_streams_nad27_edit
 10
540794
 20
3281319
 30
0.0
  0
SEQEND
  8
a_DXF_streams_nad27_edit
  0
POLYLINE
  8
a_DXF_streams_nad27_edit
 66
1
 40
47.9999845
 41
47.9999845
 62
5
 10
540794
 20
3281319
 30
0.0
  0
VERTEX
  8
a_DXF_streams_nad27_edit
 10
540794
 20
3281319
 30
0.0
  0
VERTEX
  8
a_DXF_streams_nad27_edit
 10
540474
 20
3281470
 30
0.0
  0
SEQEND
  8
a_DXF_streams_nad27_edit
  0
POLYLINE
  8
a_DXF_streams_nad27_edit
 66
1
 40
47.9999845
 41
47.9999845
 62
5
 10
540652
 20
3281641
 30
0.0
  0
VERTEX
  8
a_DXF_streams_nad27_edit
 10
540652
 20
3281641
 30
0.0
  0
VERTEX
  8
a_DXF_streams_nad27_edit
 10
540596
 20
3281635
 30
0.0
  0
VERTEX
  8
a_DXF_streams_nad27_edit
 10
540569
 20
3281619
 30
0.0
  0
VERTEX
  8
a_DXF_streams_nad27_edit
 10
540553
 20
3281616
 30
0.0
  0
VERTEX
  8
a_DXF_streams_nad27_edit
 10
540526
 20
3281583
 30
0.0
  0
VERTEX
  8
a_DXF_streams_nad27_edit
 10
540518
 20
3281580
 30
0.0
  0
VERTEX
  8
a_DXF_streams_nad27_edit
 10
540491
 20
3281586
 30
0.0
  0
VERTEX
  8
a_DXF_streams_nad27_edit
 10
540432
 20
3281587
 30
0.0
  0
VERTEX
  8
a_DXF_streams_nad27_edit
 10
540420
 20
3281583
 30
0.0
  0
VERTEX
  8
a_DXF_streams_nad27_edit
 10
540388
 20
3281558
 30
0.0
  0
VERTEX
  8
a_DXF_streams_nad27_edit
 10
540379
 20
3281536
 30
0.0
  0
VERTEX
  8
a_DXF_streams_nad27_edit
 10
540392
 20
3281520
 30
0.0
  0
VERTEX
  8
a_DXF_streams_nad27_edit
 10
540402
 20
3281516
 30
0.0
  0
VERTEX
  8
a_DXF_streams_nad27_edit
 10
540428
 20
3281510
 30
0.0
  0
VERTEX
  8
a_DXF_streams_nad27_edit
 10
540443
 20
3281512
 30
0.0
  0
VERTEX
  8
a_DXF_streams_nad27_edit
 10
540461
 20
3281527
 30
0.0
  0
VERTEX
  8
a_DXF_streams_nad27_edit
 10
540480
 20
3281536
 30
0.0
  0
VERTEX
  8
a_DXF_streams_nad27_edit
 10
540490
 20
3281535
 30
0.0
  0
VERTEX
  8
a_DXF_streams_nad27_edit
 10
540518
 20
3281522
 30
0.0
  0
VERTEX
  8
a_DXF_streams_nad27_edit
 10
540503
 20
3281510
 30
0.0
  0
VERTEX
  8
a_DXF_streams_nad27_edit
 10
540481
 20
3281513
 30
0.0
  0
VERTEX
  8
a_DXF_streams_nad27_edit
 10
540462
 20
3281503
 30
0.0
  0
VERTEX
  8
a_DXF_streams_nad27_edit
 10
540460
 20
3281496
 30
0.0
  0
VERTEX
  8
a_DXF_streams_nad27_edit
 10
540474
 20
3281470
 30
0.0
  0
SEQEND
  8
a_DXF_streams_nad27_edit
  0
POLYLINE
  8
a_DXF_streams_nad27_edit
 66
1
 40
47.9999845
 41
47.9999845
 62
5
 10
538803
 20
3280888
 30
0.0
  0
VERTEX
  8
a_DXF_streams_nad27_edit
 10
538803
 20
3280888
 30
0.0
  0
VERTEX
  8
a_DXF_streams_nad27_edit
 10
538706
 20
3281226
 30
0.0
  0
VERTEX
  8
a_DXF_streams_nad27_edit
 10
538649
 20
3281385
 30
0.0
  0
VERTEX
  8
a_DXF_streams_nad27_edit
 10
538637
 20
3281435
 30
0.0
  0
VERTEX
  8
a_DXF_streams_nad27_edit
 10
538633
 20
3281479
 30
0.0
  0
VERTEX
  8
a_DXF_streams_nad27_edit
 10
538633
 20
3281502
 30
0.0
  0
VERTEX
  8
a_DXF_streams_nad27_edit
 10
538641
 20
3281555
 30
0.0
  0
VERTEX
  8
a_DXF_streams_nad27_edit
 10
538703
 20
3281700
 30
0.0
  0
SEQEND
  8
a_DXF_streams_nad27_edit
  0
POLYLINE
  8
a_DXF_streams_nad27_edit
 66
1
 40
47.9999845
 41
47.9999845
 62
5
 10
536402
 20
3280772
 30
0.0
  0
VERTEX
  8
a_DXF_streams_nad27_edit
 10
536402
 20
3280772
 30
0.0
  0
VERTEX
  8
a_DXF_streams_nad27_edit
 10
536386.171
 20
3280806.9
 30
0.0
  0
VERTEX
  8
a_DXF_streams_nad27_edit
 10
536365.929
 20
3280837.84
 30
0.0
  0
VERTEX
  8
a_DXF_streams_nad27_edit
 10
536340.414
 20
3280863.77
 30
0.0
  0
VERTEX
  8
a_DXF_streams_nad27_edit
 10
536311.678
 20
3280887.2
 30
0.0
  0
VERTEX
  8
a_DXF_streams_nad27_edit
 10
536288.009
 20
3280916.13
 30
0.0
  0
VERTEX
  8
a_DXF_streams_nad27_edit
 10
536276.61
 20
3280950.9
 30
0.0
  0
VERTEX
  8
a_DXF_streams_nad27_edit
 10
536269.2
 20
3280987.32
 30
0.0
  0
VERTEX
  8
a_DXF_streams_nad27_edit
 10
536256.503
 20
3281022.31
 30
0.0
  0
VERTEX
  8
a_DXF_streams_nad27_edit
 10
536241.862
 20
3281056.66
 30
0.0
  0
VERTEX
  8
a_DXF_streams_nad27_edit
 10
536229.4
 20
3281091.4
 30
0.0
  0
VERTEX
  8
a_DXF_streams_nad27_edit
 10
536223.216
 20
3281127.54
 30
0.0
  0
VERTEX
  8
a_DXF_streams_nad27_edit
 10
536225.022
 20
3281164.35
 30
0.0
  0
VERTEX
  8
a_DXF_streams_nad27_edit
 10
536232.208
 20
3281200.79
 30
0.0
  0
VERTEX
  8
a_DXF_streams_nad27_edit
 10
536242.495
 20
3281236.93
 30
0.0
  0
VERTEX
  8
a_DXF_streams_nad27_edit
 10
536257.309
 20
3281270.75
 30
0.0
  0
VERTEX
  8
a_DXF_streams_nad27_edit
 10
536278.911
 20
3281299.87
 30
0.0
  0
VERTEX
  8
a_DXF_streams_nad27_edit
 10
536305.781
 20
3281325.21
 30
0.0
  0
VERTEX
  8
a_DXF_streams_nad27_edit
 10
536334.183
 20
3281349.67
 30
0.0
  0
VERTEX
  8
a_DXF_streams_nad27_edit
 10
536360.348
 20
3281376.17
 30
0.0
  0
VERTEX
  8
a_DXF_streams_nad27_edit
 10
536376.001
 20
3281408.98
 30
0.0
  0
VERTEX
  8
a_DXF_streams_nad27_edit
 10
536363.245
 20
3281443.67
 30
0.0
  0
VERTEX
  8
a_DXF_streams_nad27_edit
 10
536342.475
 20
3281474.43
 30
0.0
  0
VERTEX
  8
a_DXF_streams_nad27_edit
 10
536319.219
 20
3281502.91
 30
0.0
  0
VERTEX
  8
a_DXF_streams_nad27_edit
 10
536294.844
 20
3281530.55
 30
0.0
  0
VERTEX
  8
a_DXF_streams_nad27_edit
 10
536269.62
 20
3281557.56
 30
0.0
  0
VERTEX
  8
a_DXF_streams_nad27_edit
 10
536243.569
 20
3281583.88
 30
0.0
  0
VERTEX
  8
a_DXF_streams_nad27_edit
 10
536216.713
 20
3281609.43
 30
0.0
  0
VERTEX
  8
a_DXF_streams_nad27_edit
 10
536189.074
 20
3281634.17
 30
0.0
  0
VERTEX
  8
a_DXF_streams_nad27_edit
 10
536160.353
 20
3281657.51
 30
0.0
  0
VERTEX
  8
a_DXF_streams_nad27_edit
 10
536129.629
 20
3281677.87
 30
0.0
  0
VERTEX
  8
a_DXF_streams_nad27_edit
 10
536096.947
 20
3281695.18
 30
0.0
  0
VERTEX
  8
a_DXF_streams_nad27_edit
 10
536063.269
 20
3281710.75
 30
0.0
  0
VERTEX
  8
a_DXF_streams_nad27_edit
 10
536029.411
 20
3281725.67
 30
0.0
  0
VERTEX
  8
a_DXF_streams_nad27_edit
 10
535994.847
 20
3281738.78
 30
0.0
  0
VERTEX
  8
a_DXF_streams_nad27_edit
 10
535958.717
 20
3281746.23
 30
0.0
  0
VERTEX
  8
a_DXF_streams_nad27_edit
 10
535868
 20
3281750
 30
0.0
  0
SEQEND
  8
a_DXF_streams_nad27_edit
  0
POLYLINE
  8
a_DXF_streams_nad27_edit
 66
1
 40
47.9999845
 41
47.9999845
 62
5
 10
535868
 20
3281750
 30
0.0
  0
VERTEX
  8
a_DXF_streams_nad27_edit
 10
535868
 20
3281750
 30
0.0
  0
VERTEX
  8
a_DXF_streams_nad27_edit
 10
535852.803
 20
3281783.7
 30
0.0
  0
VERTEX
  8
a_DXF_streams_nad27_edit
 10
535822
 20
3281852
 30
0.0
  0
SEQEND
  8
a_DXF_streams_nad27_edit
  0
POLYLINE
  8
a_DXF_streams_nad27_edit
 66
1
 40
47.9999845
 41
47.9999845
 62
5
 10
538703
 20
3281700
 30
0.0
  0
VERTEX
  8
a_DXF_streams_nad27_edit
 10
538703
 20
3281700
 30
0.0
  0
VERTEX
  8
a_DXF_streams_nad27_edit
 10
538742
 20
3281778
 30
0.0
  0
VERTEX
  8
a_DXF_streams_nad27_edit
 10
538800
 20
3281860
 30
0.0
  0
VERTEX
  8
a_DXF_streams_nad27_edit
 10
538826
 20
3281876
 30
0.0
  0
VERTEX
  8
a_DXF_streams_nad27_edit
 10
538848
 20
3281876
 30
0.0
  0
VERTEX
  8
a_DXF_streams_nad27_edit
 10
538864
 20
3281867
 30
0.0
  0
VERTEX
  8
a_DXF_streams_nad27_edit
 10
538868
 20
3281857
 30
0.0
  0
VERTEX
  8
a_DXF_streams_nad27_edit
 10
538884
 20
3281739
 30
0.0
  0
VERTEX
  8
a_DXF_streams_nad27_edit
 10
538928
 20
3281559
 30
0.0
  0
VERTEX
  8
a_DXF_streams_nad27_edit
 10
539032
 20
3281198
 30
0.0
  0
VERTEX
  8
a_DXF_streams_nad27_edit
 10
539058
 20
3281144
 30
0.0
  0
VERTEX
  8
a_DXF_streams_nad27_edit
 10
539113
 20
3281068
 30
0.0
  0
VERTEX
  8
a_DXF_streams_nad27_edit
 10
539166
 20
3281006
 30
0.0
  0
VERTEX
  8
a_DXF_streams_nad27_edit
 10
539217
 20
3280962
 30
0.0
  0
SEQEND
  8
a_DXF_streams_nad27_edit
  0
POLYLINE
  8
a_DXF_streams_nad27_edit
 66
1
 40
47.9999845
 41
47.9999845
 62
5
 10
535822
 20
3281852
 30
0.0
  0
VERTEX
  8
a_DXF_streams_nad27_edit
 10
535822
 20
3281852
 30
0.0
  0
VERTEX
  8
a_DXF_streams_nad27_edit
 10
535807.611
 20
3281886.06
 30
0.0
  0
VERTEX
  8
a_DXF_streams_nad27_edit
 10
535792.852
 20
3281919.96
 30
0.0
  0
VERTEX
  8
a_DXF_streams_nad27_edit
 10
535777.723
 20
3281953.68
 30
0.0
  0
VERTEX
  8
a_DXF_streams_nad27_edit
 10
535733
 20
3282048
 30
0.0
  0
SEQEND
  8
a_DXF_streams_nad27_edit
  0
POLYLINE
  8
a_DXF_streams_nad27_edit
 66
1
 40
47.9999845
 41
47.9999845
 62
5
 10
535807
 20
3282129
 30
0.0
  0
VERTEX
  8
a_DXF_streams_nad27_edit
 10
535807
 20
3282129
 30
0.0
  0
VERTEX
  8
a_DXF_streams_nad27_edit
 10
535810
 20
3282136
 30
0.0
  0
SEQEND
  8
a_DXF_streams_nad27_edit
  0
POLYLINE
  8
a_DXF_streams_nad27_edit
 66
1
 40
47.9999845
 41
47.9999845
 62
5
 10
547158
 20
3278897
 30
0.0
  0
VERTEX
  8
a_DXF_streams_nad27_edit
 10
547158
 20
3278897
 30
0.0
  0
VERTEX
  8
a_DXF_streams_nad27_edit
 10
547082
 20
3278943
 30
0.0
  0
VERTEX
  8
a_DXF_streams_nad27_edit
 10
547066
 20
3278958
 30
0.0
  0
VERTEX
  8
a_DXF_streams_nad27_edit
 10
547043
 20
3279024
 30
0.0
  0
VERTEX
  8
a_DXF_streams_nad27_edit
 10
547005
 20
3279112
 30
0.0
  0
VERTEX
  8
a_DXF_streams_nad27_edit
 10
546995
 20
3279146
 30
0.0
  0
VERTEX
  8
a_DXF_streams_nad27_edit
 10
546992
 20
3279183
 30
0.0
  0
VERTEX
  8
a_DXF_streams_nad27_edit
 10
547001
 20
3279237
 30
0.0
  0
VERTEX
  8
a_DXF_streams_nad27_edit
 10
547053
 20
3279314
 30
0.0
  0
VERTEX
  8
a_DXF_streams_nad27_edit
 10
547087
 20
3279408
 30
0.0
  0
VERTEX
  8
a_DXF_streams_nad27_edit
 10
547100
 20
3279470
 30
0.0
  0
VERTEX
  8
a_DXF_streams_nad27_edit
 10
547107
 20
3279533
 30
0.0
  0
VERTEX
  8
a_DXF_streams_nad27_edit
 10
547106
 20
3279601
 30
0.0
  0
VERTEX
  8
a_DXF_streams_nad27_edit
 10
547092
 20
3279706
 30
0.0
  0
VERTEX
  8
a_DXF_streams_nad27_edit
 10
547071
 20
3279763
 30
0.0
  0
VERTEX
  8
a_DXF_streams_nad27_edit
 10
547055
 20
3279789
 30
0.0
  0
VERTEX
  8
a_DXF_streams_nad27_edit
 10
547034
 20
3279812
 30
0.0
  0
VERTEX
  8
a_DXF_streams_nad27_edit
 10
546996
 20
3279840
 30
0.0
  0
VERTEX
  8
a_DXF_streams_nad27_edit
 10
546943
 20
3279866
 30
0.0
  0
VERTEX
  8
a_DXF_streams_nad27_edit
 10
546889
 20
3279890
 30
0.0
  0
VERTEX
  8
a_DXF_streams_nad27_edit
 10
546761
 20
3279937
 30
0.0
  0
VERTEX
  8
a_DXF_streams_nad27_edit
 10
546713
 20
3279960
 30
0.0
  0
VERTEX
  8
a_DXF_streams_nad27_edit
 10
546640
 20
3280011
 30
0.0
  0
VERTEX
  8
a_DXF_streams_nad27_edit
 10
546595
 20
3280053
 30
0.0
  0
VERTEX
  8
a_DXF_streams_nad27_edit
 10
546573
 20
3280095
 30
0.0
  0
VERTEX
  8
a_DXF_streams_nad27_edit
 10
546565
 20
3280139
 30
0.0
  0
VERTEX
  8
a_DXF_streams_nad27_edit
 10
546566
 20
3280183
 30
0.0
  0
VERTEX
  8
a_DXF_streams_nad27_edit
 10
546575
 20
3280290
 30
0.0
  0
VERTEX
  8
a_DXF_streams_nad27_edit
 10
546570
 20
3280377
 30
0.0
  0
VERTEX
  8
a_DXF_streams_nad27_edit
 10
546562
 20
3280428
 30
0.0
  0
VERTEX
  8
a_DXF_streams_nad27_edit
 10
546549
 20
3280477
 30
0.0
  0
VERTEX
  8
a_DXF_streams_nad27_edit
 10
546507
 20
3280566
 30
0.0
  0
VERTEX
  8
a_DXF_streams_nad27_edit
 10
546486
 20
3280638
 30
0.0
  0
VERTEX
  8
a_DXF_streams_nad27_edit
 10
546479
 20
3280651
 30
0.0
  0
VERTEX
  8
a_DXF_streams_nad27_edit
 10
546462
 20
3280666
 30
0.0
  0
VERTEX
  8
a_DXF_streams_nad27_edit
 10
546400
 20
3280675
 30
0.0
  0
VERTEX
  8
a_DXF_streams_nad27_edit
 10
546381
 20
3280681
 30
0.0
  0
VERTEX
  8
a_DXF_streams_nad27_edit
 10
546336
 20
3280703
 30
0.0
  0
VERTEX
  8
a_DXF_streams_nad27_edit
 10
546288
 20
3280735
 30
0.0
  0
VERTEX
  8
a_DXF_streams_nad27_edit
 10
546255
 20
3280770
 30
0.0
  0
VERTEX
  8
a_DXF_streams_nad27_edit
 10
546242
 20
3280800
 30
0.0
  0
VERTEX
  8
a_DXF_streams_nad27_edit
 10
546236
 20
3280851
 30
0.0
  0
VERTEX
  8
a_DXF_streams_nad27_edit
 10
546239
 20
3281087
 30
0.0
  0
VERTEX
  8
a_DXF_streams_nad27_edit
 10
546236
 20
3281115
 30
0.0
  0
VERTEX
  8
a_DXF_streams_nad27_edit
 10
546203
 20
3281234
 30
0.0
  0
VERTEX
  8
a_DXF_streams_nad27_edit
 10
546197
 20
3281299
 30
0.0
  0
VERTEX
  8
a_DXF_streams_nad27_edit
 10
546199
 20
3281344
 30
0.0
  0
VERTEX
  8
a_DXF_streams_nad27_edit
 10
546212
 20
3281414
 30
0.0
  0
VERTEX
  8
a_DXF_streams_nad27_edit
 10
546222
 20
3281444
 30
0.0
  0
VERTEX
  8
a_DXF_streams_nad27_edit
 10
546276
 20
3281572
 30
0.0
  0
VERTEX
  8
a_DXF_streams_nad27_edit
 10
546295
 20
3281651
 30
0.0
  0
VERTEX
  8
a_DXF_streams_nad27_edit
 10
546298
 20
3281678
 30
0.0
  0
VERTEX
  8
a_DXF_streams_nad27_edit
 10
546297
 20
3281785
 30
0.0
  0
VERTEX
  8
a_DXF_streams_nad27_edit
 10
546307
 20
3281890
 30
0.0
  0
VERTEX
  8
a_DXF_streams_nad27_edit
 10
546301
 20
3281949
 30
0.0
  0
VERTEX
  8
a_DXF_streams_nad27_edit
 10
546283
 20
3281989
 30
0.0
  0
VERTEX
  8
a_DXF_streams_nad27_edit
 10
546270
 20
3282008
 30
0.0
  0
VERTEX
  8
a_DXF_streams_nad27_edit
 10
546243
 20
3282042
 30
0.0
  0
VERTEX
  8
a_DXF_streams_nad27_edit
 10
546156
 20
3282125
 30
0.0
  0
VERTEX
  8
a_DXF_streams_nad27_edit
 10
546115
 20
3282179
 30
0.0
  0
SEQEND
  8
a_DXF_streams_nad27_edit
  0
POLYLINE
  8
a_DXF_streams_nad27_edit
 66
1
 40
47.9999845
 41
47.9999845
 62
5
 10
538703
 20
3281700
 30
0.0
  0
VERTEX
  8
a_DXF_streams_nad27_edit
 10
538703
 20
3281700
 30
0.0
  0
VERTEX
  8
a_DXF_streams_nad27_edit
 10
538671
 20
3281804
 30
0.0
  0
VERTEX
  8
a_DXF_streams_nad27_edit
 10
538622
 20
3281917
 30
0.0
  0
VERTEX
  8
a_DXF_streams_nad27_edit
 10
538608
 20
3281980
 30
0.0
  0
VERTEX
  8
a_DXF_streams_nad27_edit
 10
538595
 20
3282089
 30
0.0
  0
VERTEX
  8
a_DXF_streams_nad27_edit
 10
538591
 20
3282096
 30
0.0
  0
VERTEX
  8
a_DXF_streams_nad27_edit
 10
538569
 20
3282109
 30
0.0
  0
VERTEX
  8
a_DXF_streams_nad27_edit
 10
538562
 20
3282117
 30
0.0
  0
VERTEX
  8
a_DXF_streams_nad27_edit
 10
538558
 20
3282133
 30
0.0
  0
VERTEX
  8
a_DXF_streams_nad27_edit
 10
538561
 20
3282184
 30
0.0
  0
VERTEX
  8
a_DXF_streams_nad27_edit
 10
538559
 20
3282206
 30
0.0
  0
VERTEX
  8
a_DXF_streams_nad27_edit
 10
538549
 20
3282228
 30
0.0
  0
SEQEND
  8
a_DXF_streams_nad27_edit
  0
POLYLINE
  8
a_DXF_streams_nad27_edit
 66
1
 40
47.9999845
 41
47.9999845
 62
5
 10
541186
 20
3282601
 30
0.0
  0
VERTEX
  8
a_DXF_streams_nad27_edit
 10
541186
 20
3282601
 30
0.0
  0
VERTEX
  8
a_DXF_streams_nad27_edit
 10
541224
 20
3282527
 30
0.0
  0
VERTEX
  8
a_DXF_streams_nad27_edit
 10
541226
 20
3282515
 30
0.0
  0
VERTEX
  8
a_DXF_streams_nad27_edit
 10
541224
 20
3282502
 30
0.0
  0
VERTEX
  8
a_DXF_streams_nad27_edit
 10
541199
 20
3282508
 30
0.0
  0
VERTEX
  8
a_DXF_streams_nad27_edit
 10
541193
 20
3282500
 30
0.0
  0
VERTEX
  8
a_DXF_streams_nad27_edit
 10
541213
 20
3282438
 30
0.0
  0
VERTEX
  8
a_DXF_streams_nad27_edit
 10
541222
 20
3282398
 30
0.0
  0
VERTEX
  8
a_DXF_streams_nad27_edit
 10
541223
 20
3282373
 30
0.0
  0
VERTEX
  8
a_DXF_streams_nad27_edit
 10
541206
 20
3282296
 30
0.0
  0
VERTEX
  8
a_DXF_streams_nad27_edit
 10
541199
 20
3282284
 30
0.0
  0
VERTEX
  8
a_DXF_streams_nad27_edit
 10
541187
 20
3282272
 30
0.0
  0
VERTEX
  8
a_DXF_streams_nad27_edit
 10
541058
 20
3282193
 30
0.0
  0
VERTEX
  8
a_DXF_streams_nad27_edit
 10
541046
 20
3282183
 30
0.0
  0
VERTEX
  8
a_DXF_streams_nad27_edit
 10
540790
 20
3281793
 30
0.0
  0
VERTEX
  8
a_DXF_streams_nad27_edit
 10
540725
 20
3281682
 30
0.0
  0
VERTEX
  8
a_DXF_streams_nad27_edit
 10
540704
 20
3281659
 30
0.0
  0
VERTEX
  8
a_DXF_streams_nad27_edit
 10
540691
 20
3281650
 30
0.0
  0
VERTEX
  8
a_DXF_streams_nad27_edit
 10
540652
 20
3281641
 30
0.0
  0
SEQEND
  8
a_DXF_streams_nad27_edit
  0
POLYLINE
  8
a_DXF_streams_nad27_edit
 66
1
 40
47.9999845
 41
47.9999845
 62
5
 10
538549
 20
3282228
 30
0.0
  0
VERTEX
  8
a_DXF_streams_nad27_edit
 10
538549
 20
3282228
 30
0.0
  0
VERTEX
  8
a_DXF_streams_nad27_edit
 10
538518
 20
3282281
 30
0.0
  0
VERTEX
  8
a_DXF_streams_nad27_edit
 10
538448
 20
3282384
 30
0.0
  0
VERTEX
  8
a_DXF_streams_nad27_edit
 10
538426
 20
3282429
 30
0.0
  0
VERTEX
  8
a_DXF_streams_nad27_edit
 10
538434
 20
3282456
 30
0.0
  0
VERTEX
  8
a_DXF_streams_nad27_edit
 10
538458
 20
3282506
 30
0.0
  0
VERTEX
  8
a_DXF_streams_nad27_edit
 10
538464
 20
3282570
 30
0.0
  0
VERTEX
  8
a_DXF_streams_nad27_edit
 10
538486
 20
3282647
 30
0.0
  0
SEQEND
  8
a_DXF_streams_nad27_edit
  0
POLYLINE
  8
a_DXF_streams_nad27_edit
 66
1
 40
47.9999845
 41
47.9999845
 62
5
 10
540920
 20
3281260
 30
0.0
  0
VERTEX
  8
a_DXF_streams_nad27_edit
 10
540920
 20
3281260
 30
0.0
  0
VERTEX
  8
a_DXF_streams_nad27_edit
 10
540948
 20
3281304
 30
0.0
  0
VERTEX
  8
a_DXF_streams_nad27_edit
 10
540973
 20
3281368
 30
0.0
  0
VERTEX
  8
a_DXF_streams_nad27_edit
 10
541023
 20
3281457
 30
0.0
  0
VERTEX
  8
a_DXF_streams_nad27_edit
 10
541050
 20
3281480
 30
0.0
  0
VERTEX
  8
a_DXF_streams_nad27_edit
 10
541061
 20
3281484
 30
0.0
  0
VERTEX
  8
a_DXF_streams_nad27_edit
 10
541077
 20
3281483
 30
0.0
  0
VERTEX
  8
a_DXF_streams_nad27_edit
 10
541164
 20
3281445
 30
0.0
  0
VERTEX
  8
a_DXF_streams_nad27_edit
 10
541211
 20
3281432
 30
0.0
  0
VERTEX
  8
a_DXF_streams_nad27_edit
 10
541232
 20
3281432
 30
0.0
  0
VERTEX
  8
a_DXF_streams_nad27_edit
 10
541281
 20
3281445
 30
0.0
  0
VERTEX
  8
a_DXF_streams_nad27_edit
 10
541199
 20
3281477
 30
0.0
  0
VERTEX
  8
a_DXF_streams_nad27_edit
 10
541181
 20
3281488
 30
0.0
  0
VERTEX
  8
a_DXF_streams_nad27_edit
 10
541145
 20
3281523
 30
0.0
  0
VERTEX
  8
a_DXF_streams_nad27_edit
 10
541120
 20
3281568
 30
0.0
  0
VERTEX
  8
a_DXF_streams_nad27_edit
 10
541115
 20
3281617
 30
0.0
  0
VERTEX
  8
a_DXF_streams_nad27_edit
 10
541116
 20
3281643
 30
0.0
  0
VERTEX
  8
a_DXF_streams_nad27_edit
 10
541127
 20
3281702
 30
0.0
  0
VERTEX
  8
a_DXF_streams_nad27_edit
 10
541174
 20
3281893
 30
0.0
  0
VERTEX
  8
a_DXF_streams_nad27_edit
 10
541188
 20
3281924
 30
0.0
  0
VERTEX
  8
a_DXF_streams_nad27_edit
 10
541267
 20
3281998
 30
0.0
  0
VERTEX
  8
a_DXF_streams_nad27_edit
 10
541294
 20
3282016
 30
0.0
  0
VERTEX
  8
a_DXF_streams_nad27_edit
 10
541379
 20
3282058
 30
0.0
  0
VERTEX
  8
a_DXF_streams_nad27_edit
 10
541377
 20
3282065
 30
0.0
  0
VERTEX
  8
a_DXF_streams_nad27_edit
 10
541368
 20
3282073
 30
0.0
  0
VERTEX
  8
a_DXF_streams_nad27_edit
 10
541346
 20
3282076
 30
0.0
  0
VERTEX
  8
a_DXF_streams_nad27_edit
 10
541328
 20
3282093
 30
0.0
  0
VERTEX
  8
a_DXF_streams_nad27_edit
 10
541352
 20
3282145
 30
0.0
  0
VERTEX
  8
a_DXF_streams_nad27_edit
 10
541376
 20
3282183
 30
0.0
  0
VERTEX
  8
a_DXF_streams_nad27_edit
 10
541379
 20
3282196
 30
0.0
  0
VERTEX
  8
a_DXF_streams_nad27_edit
 10
541359
 20
3282368
 30
0.0
  0
VERTEX
  8
a_DXF_streams_nad27_edit
 10
541348
 20
3282396
 30
0.0
  0
VERTEX
  8
a_DXF_streams_nad27_edit
 10
541333
 20
3282409
 30
0.0
  0
VERTEX
  8
a_DXF_streams_nad27_edit
 10
541347
 20
3282427
 30
0.0
  0
VERTEX
  8
a_DXF_streams_nad27_edit
 10
541426
 20
3282481
 30
0.0
  0
VERTEX
  8
a_DXF_streams_nad27_edit
 10
541464
 20
3282517
 30
0.0
  0
VERTEX
  8
a_DXF_streams_nad27_edit
 10
541479
 20
3282549
 30
0.0
  0
VERTEX
  8
a_DXF_streams_nad27_edit
 10
541484
 20
3282582
 30
0.0
  0
VERTEX
  8
a_DXF_streams_nad27_edit
 10
541503
 20
3282616
 30
0.0
  0
VERTEX
  8
a_DXF_streams_nad27_edit
 10
541532
 20
3282649
 30
0.0
  0
SEQEND
  8
a_DXF_streams_nad27_edit
  0
POLYLINE
  8
a_DXF_streams_nad27_edit
 66
1
 40
47.9999845
 41
47.9999845
 62
5
 10
541478
 20
3282697
 30
0.0
  0
VERTEX
  8
a_DXF_streams_nad27_edit
 10
541478
 20
3282697
 30
0.0
  0
VERTEX
  8
a_DXF_streams_nad27_edit
 10
541465
 20
3282689
 30
0.0
  0
VERTEX
  8
a_DXF_streams_nad27_edit
 10
541461
 20
3282662
 30
0.0
  0
VERTEX
  8
a_DXF_streams_nad27_edit
 10
541433
 20
3282592
 30
0.0
  0
VERTEX
  8
a_DXF_streams_nad27_edit
 10
541414
 20
3282557
 30
0.0
  0
VERTEX
  8
a_DXF_streams_nad27_edit
 10
541386
 20
3282533
 30
0.0
  0
VERTEX
  8
a_DXF_streams_nad27_edit
 10
541303
 20
3282494
 30
0.0
  0
VERTEX
  8
a_DXF_streams_nad27_edit
 10
541295
 20
3282494
 30
0.0
  0
VERTEX
  8
a_DXF_streams_nad27_edit
 10
541221
 20
3282592
 30
0.0
  0
VERTEX
  8
a_DXF_streams_nad27_edit
 10
541199
 20
3282604
 30
0.0
  0
VERTEX
  8
a_DXF_streams_nad27_edit
 10
541186
 20
3282601
 30
0.0
  0
SEQEND
  8
a_DXF_streams_nad27_edit
  0
POLYLINE
  8
a_DXF_streams_nad27_edit
 66
1
 40
47.9999845
 41
47.9999845
 62
5
 10
541532
 20
3282649
 30
0.0
  0
VERTEX
  8
a_DXF_streams_nad27_edit
 10
541532
 20
3282649
 30
0.0
  0
VERTEX
  8
a_DXF_streams_nad27_edit
 10
541507
 20
3282659
 30
0.0
  0
VERTEX
  8
a_DXF_streams_nad27_edit
 10
541478
 20
3282697
 30
0.0
  0
SEQEND
  8
a_DXF_streams_nad27_edit
  0
POLYLINE
  8
a_DXF_streams_nad27_edit
 66
1
 40
47.9999845
 41
47.9999845
 62
5
 10
535733
 20
3282048
 30
0.0
  0
VERTEX
  8
a_DXF_streams_nad27_edit
 10
535733
 20
3282048
 30
0.0
  0
VERTEX
  8
a_DXF_streams_nad27_edit
 10
535676
 20
3282157
 30
0.0
  0
VERTEX
  8
a_DXF_streams_nad27_edit
 10
535635
 20
3282247
 30
0.0
  0
VERTEX
  8
a_DXF_streams_nad27_edit
 10
535558
 20
3282359
 30
0.0
  0
VERTEX
  8
a_DXF_streams_nad27_edit
 10
535552
 20
3282363
 30
0.0
  0
VERTEX
  8
a_DXF_streams_nad27_edit
 10
535511
 20
3282350
 30
0.0
  0
VERTEX
  8
a_DXF_streams_nad27_edit
 10
535501
 20
3282356
 30
0.0
  0
VERTEX
  8
a_DXF_streams_nad27_edit
 10
535488
 20
3282386
 30
0.0
  0
VERTEX
  8
a_DXF_streams_nad27_edit
 10
535480
 20
3282387
 30
0.0
  0
VERTEX
  8
a_DXF_streams_nad27_edit
 10
535436
 20
3282367
 30
0.0
  0
VERTEX
  8
a_DXF_streams_nad27_edit
 10
535423
 20
3282373
 30
0.0
  0
VERTEX
  8
a_DXF_streams_nad27_edit
 10
535415
 20
3282398
 30
0.0
  0
VERTEX
  8
a_DXF_streams_nad27_edit
 10
535401
 20
3282408
 30
0.0
  0
VERTEX
  8
a_DXF_streams_nad27_edit
 10
535367
 20
3282395
 30
0.0
  0
VERTEX
  8
a_DXF_streams_nad27_edit
 10
535330
 20
3282403
 30
0.0
  0
VERTEX
  8
a_DXF_streams_nad27_edit
 10
535257
 20
3282409
 30
0.0
  0
VERTEX
  8
a_DXF_streams_nad27_edit
 10
535081
 20
3282368
 30
0.0
  0
VERTEX
  8
a_DXF_streams_nad27_edit
 10
535005
 20
3282383
 30
0.0
  0
VERTEX
  8
a_DXF_streams_nad27_edit
 10
534939
 20
3282371
 30
0.0
  0
VERTEX
  8
a_DXF_streams_nad27_edit
 10
534917
 20
3282370
 30
0.0
  0
VERTEX
  8
a_DXF_streams_nad27_edit
 10
534883
 20
3282382
 30
0.0
  0
VERTEX
  8
a_DXF_streams_nad27_edit
 10
534855
 20
3282412
 30
0.0
  0
VERTEX
  8
a_DXF_streams_nad27_edit
 10
534845
 20
3282432
 30
0.0
  0
VERTEX
  8
a_DXF_streams_nad27_edit
 10
534838
 20
3282462
 30
0.0
  0
VERTEX
  8
a_DXF_streams_nad27_edit
 10
534838
 20
3282494
 30
0.0
  0
VERTEX
  8
a_DXF_streams_nad27_edit
 10
534857
 20
3282570
 30
0.0
  0
VERTEX
  8
a_DXF_streams_nad27_edit
 10
534872
 20
3282597
 30
0.0
  0
VERTEX
  8
a_DXF_streams_nad27_edit
 10
534879
 20
3282602
 30
0.0
  0
VERTEX
  8
a_DXF_streams_nad27_edit
 10
534922
 20
3282607
 30
0.0
  0
VERTEX
  8
a_DXF_streams_nad27_edit
 10
534937
 20
3282638
 30
0.0
  0
VERTEX
  8
a_DXF_streams_nad27_edit
 10
534954
 20
3282734
 30
0.0
  0
VERTEX
  8
a_DXF_streams_nad27_edit
 10
534981
 20
3282828
 30
0.0
  0
VERTEX
  8
a_DXF_streams_nad27_edit
 10
534982
 20
3282846
 30
0.0
  0
VERTEX
  8
a_DXF_streams_nad27_edit
 10
534976
 20
3282870
 30
0.0
  0
SEQEND
  8
a_DXF_streams_nad27_edit
  0
POLYLINE
  8
a_DXF_streams_nad27_edit
 66
1
 40
47.9999845
 41
47.9999845
 62
5
 10
546115
 20
3282179
 30
0.0
  0
VERTEX
  8
a_DXF_streams_nad27_edit
 10
546115
 20
3282179
 30
0.0
  0
VERTEX
  8
a_DXF_streams_nad27_edit
 10
546120
 20
3282220
 30
0.0
  0
VERTEX
  8
a_DXF_streams_nad27_edit
 10
546132
 20
3282261
 30
0.0
  0
VERTEX
  8
a_DXF_streams_nad27_edit
 10
546135
 20
3282281
 30
0.0
  0
VERTEX
  8
a_DXF_streams_nad27_edit
 10
546129
 20
3282382
 30
0.0
  0
VERTEX
  8
a_DXF_streams_nad27_edit
 10
546117
 20
3282410
 30
0.0
  0
VERTEX
  8
a_DXF_streams_nad27_edit
 10
546090
 20
3282428
 30
0.0
  0
VERTEX
  8
a_DXF_streams_nad27_edit
 10
545996
 20
3282456
 30
0.0
  0
VERTEX
  8
a_DXF_streams_nad27_edit
 10
545954
 20
3282475
 30
0.0
  0
VERTEX
  8
a_DXF_streams_nad27_edit
 10
545925
 20
3282500
 30
0.0
  0
VERTEX
  8
a_DXF_streams_nad27_edit
 10
545916
 20
3282517
 30
0.0
  0
VERTEX
  8
a_DXF_streams_nad27_edit
 10
545913
 20
3282547
 30
0.0
  0
VERTEX
  8
a_DXF_streams_nad27_edit
 10
545916
 20
3282568
 30
0.0
  0
VERTEX
  8
a_DXF_streams_nad27_edit
 10
545954
 20
3282679
 30
0.0
  0
VERTEX
  8
a_DXF_streams_nad27_edit
 10
545971
 20
3282755
 30
0.0
  0
VERTEX
  8
a_DXF_streams_nad27_edit
 10
545981
 20
3282780
 30
0.0
  0
VERTEX
  8
a_DXF_streams_nad27_edit
 10
545998
 20
3282807
 30
0.0
  0
VERTEX
  8
a_DXF_streams_nad27_edit
 10
546061
 20
3282883
 30
0.0
  0
VERTEX
  8
a_DXF_streams_nad27_edit
 10
546096
 20
3282932
 30
0.0
  0
VERTEX
  8
a_DXF_streams_nad27_edit
 10
546103
 20
3282948
 30
0.0
  0
VERTEX
  8
a_DXF_streams_nad27_edit
 10
546092
 20
3282972
 30
0.0
  0
SEQEND
  8
a_DXF_streams_nad27_edit
  0
POLYLINE
  8
a_DXF_streams_nad27_edit
 66
1
 40
47.9999845
 41
47.9999845
 62
5
 10
538486
 20
3282647
 30
0.0
  0
VERTEX
  8
a_DXF_streams_nad27_edit
 10
538486
 20
3282647
 30
0.0
  0
VERTEX
  8
a_DXF_streams_nad27_edit
 10
538484
 20
3282662
 30
0.0
  0
VERTEX
  8
a_DXF_streams_nad27_edit
 10
538476
 20
3282669
 30
0.0
  0
VERTEX
  8
a_DXF_streams_nad27_edit
 10
538418
 20
3282710
 30
0.0
  0
VERTEX
  8
a_DXF_streams_nad27_edit
 10
538411
 20
3282721
 30
0.0
  0
VERTEX
  8
a_DXF_streams_nad27_edit
 10
538404
 20
3282746
 30
0.0
  0
VERTEX
  8
a_DXF_streams_nad27_edit
 10
538403
 20
3282772
 30
0.0
  0
VERTEX
  8
a_DXF_streams_nad27_edit
 10
538438
 20
3282938
 30
0.0
  0
VERTEX
  8
a_DXF_streams_nad27_edit
 10
538463
 20
3283023
 30
0.0
  0
SEQEND
  8
a_DXF_streams_nad27_edit
  0
POLYLINE
  8
a_DXF_streams_nad27_edit
 66
1
 40
47.9999845
 41
47.9999845
 62
5
 10
544340
 20
3281205
 30
0.0
  0
VERTEX
  8
a_DXF_streams_nad27_edit
 10
544340
 20
3281205
 30
0.0
  0
VERTEX
  8
a_DXF_streams_nad27_edit
 10
544327
 20
3281232
 30
0.0
  0
VERTEX
  8
a_DXF_streams_nad27_edit
 10
544323
 20
3281261
 30
0.0
  0
VERTEX
  8
a_DXF_streams_nad27_edit
 10
544329
 20
3281407
 30
0.0
  0
VERTEX
  8
a_DXF_streams_nad27_edit
 10
544320
 20
3281496
 30
0.0
  0
VERTEX
  8
a_DXF_streams_nad27_edit
 10
544326
 20
3281591
 30
0.0
  0
VERTEX
  8
a_DXF_streams_nad27_edit
 10
544318
 20
3281640
 30
0.0
  0
VERTEX
  8
a_DXF_streams_nad27_edit
 10
544302
 20
3281657
 30
0.0
  0
VERTEX
  8
a_DXF_streams_nad27_edit
 10
544267
 20
3281679
 30
0.0
  0
VERTEX
  8
a_DXF_streams_nad27_edit
 10
544151
 20
3281797
 30
0.0
  0
VERTEX
  8
a_DXF_streams_nad27_edit
 10
544082
 20
3281880
 30
0.0
  0
VERTEX
  8
a_DXF_streams_nad27_edit
 10
544053
 20
3281935
 30
0.0
  0
VERTEX
  8
a_DXF_streams_nad27_edit
 10
544045
 20
3281967
 30
0.0
  0
VERTEX
  8
a_DXF_streams_nad27_edit
 10
544011
 20
3282233
 30
0.0
  0
VERTEX
  8
a_DXF_streams_nad27_edit
 10
543997
 20
3282289
 30
0.0
  0
VERTEX
  8
a_DXF_streams_nad27_edit
 10
543977
 20
3282343
 30
0.0
  0
VERTEX
  8
a_DXF_streams_nad27_edit
 10
543930
 20
3282432
 30
0.0
  0
VERTEX
  8
a_DXF_streams_nad27_edit
 10
543811
 20
3282638
 30
0.0
  0
VERTEX
  8
a_DXF_streams_nad27_edit
 10
543769
 20
3282767
 30
0.0
  0
VERTEX
  8
a_DXF_streams_nad27_edit
 10
543642
 20
3282988
 30
0.0
  0
VERTEX
  8
a_DXF_streams_nad27_edit
 10
543564
 20
3283098
 30
0.0
  0
SEQEND
  8
a_DXF_streams_nad27_edit
  0
POLYLINE
  8
a_DXF_streams_nad27_edit
 66
1
 40
47.9999845
 41
47.9999845
 62
5
 10
541478
 20
3282697
 30
0.0
  0
VERTEX
  8
a_DXF_streams_nad27_edit
 10
541478
 20
3282697
 30
0.0
  0
VERTEX
  8
a_DXF_streams_nad27_edit
 10
541438
 20
3282876
 30
0.0
  0
VERTEX
  8
a_DXF_streams_nad27_edit
 10
541431
 20
3282929
 30
0.0
  0
VERTEX
  8
a_DXF_streams_nad27_edit
 10
541429
 20
3282964
 30
0.0
  0
VERTEX
  8
a_DXF_streams_nad27_edit
 10
541430
 20
3283010
 30
0.0
  0
VERTEX
  8
a_DXF_streams_nad27_edit
 10
541433
 20
3283036
 30
0.0
  0
VERTEX
  8
a_DXF_streams_nad27_edit
 10
541444
 20
3283074
 30
0.0
  0
VERTEX
  8
a_DXF_streams_nad27_edit
 10
541462
 20
3283153
 30
0.0
  0
VERTEX
  8
a_DXF_streams_nad27_edit
 10
541485
 20
3283284
 30
0.0
  0
VERTEX
  8
a_DXF_streams_nad27_edit
 10
541480
 20
3283322
 30
0.0
  0
VERTEX
  8
a_DXF_streams_nad27_edit
 10
541474
 20
3283333
 30
0.0
  0
SEQEND
  8
a_DXF_streams_nad27_edit
  0
POLYLINE
  8
a_DXF_streams_nad27_edit
 66
1
 40
47.9999845
 41
47.9999845
 62
5
 10
546115
 20
3282179
 30
0.0
  0
VERTEX
  8
a_DXF_streams_nad27_edit
 10
546115
 20
3282179
 30
0.0
  0
VERTEX
  8
a_DXF_streams_nad27_edit
 10
546108
 20
3282186
 30
0.0
  0
VERTEX
  8
a_DXF_streams_nad27_edit
 10
546059
 20
3282204
 30
0.0
  0
VERTEX
  8
a_DXF_streams_nad27_edit
 10
545929
 20
3282241
 30
0.0
  0
VERTEX
  8
a_DXF_streams_nad27_edit
 10
545863
 20
3282265
 30
0.0
  0
VERTEX
  8
a_DXF_streams_nad27_edit
 10
545785
 20
3282301
 30
0.0
  0
VERTEX
  8
a_DXF_streams_nad27_edit
 10
545734
 20
3282334
 30
0.0
  0
VERTEX
  8
a_DXF_streams_nad27_edit
 10
545687
 20
3282376
 30
0.0
  0
VERTEX
  8
a_DXF_streams_nad27_edit
 10
545633
 20
3282442
 30
0.0
  0
VERTEX
  8
a_DXF_streams_nad27_edit
 10
545528
 20
3282527
 30
0.0
  0
VERTEX
  8
a_DXF_streams_nad27_edit
 10
545456
 20
3282594
 30
0.0
  0
VERTEX
  8
a_DXF_streams_nad27_edit
 10
545333
 20
3282666
 30
0.0
  0
VERTEX
  8
a_DXF_streams_nad27_edit
 10
545268
 20
3282741
 30
0.0
  0
VERTEX
  8
a_DXF_streams_nad27_edit
 10
545123
 20
3282863
 30
0.0
  0
VERTEX
  8
a_DXF_streams_nad27_edit
 10
545104
 20
3282886
 30
0.0
  0
VERTEX
  8
a_DXF_streams_nad27_edit
 10
545090
 20
3282912
 30
0.0
  0
VERTEX
  8
a_DXF_streams_nad27_edit
 10
545080
 20
3282947
 30
0.0
  0
VERTEX
  8
a_DXF_streams_nad27_edit
 10
545097
 20
3283026
 30
0.0
  0
VERTEX
  8
a_DXF_streams_nad27_edit
 10
545094
 20
3283054
 30
0.0
  0
VERTEX
  8
a_DXF_streams_nad27_edit
 10
545028
 20
3283181
 30
0.0
  0
VERTEX
  8
a_DXF_streams_nad27_edit
 10
545022
 20
3283229
 30
0.0
  0
VERTEX
  8
a_DXF_streams_nad27_edit
 10
545008
 20
3283257
 30
0.0
  0
VERTEX
  8
a_DXF_streams_nad27_edit
 10
544867
 20
3283371
 30
0.0
  0
VERTEX
  8
a_DXF_streams_nad27_edit
 10
544840
 20
3283379
 30
0.0
  0
VERTEX
  8
a_DXF_streams_nad27_edit
 10
544792
 20
3283377
 30
0.0
  0
VERTEX
  8
a_DXF_streams_nad27_edit
 10
544730
 20
3283365
 30
0.0
  0
VERTEX
  8
a_DXF_streams_nad27_edit
 10
544702
 20
3283364
 30
0.0
  0
VERTEX
  8
a_DXF_streams_nad27_edit
 10
544676
 20
3283366
 30
0.0
  0
VERTEX
  8
a_DXF_streams_nad27_edit
 10
544634
 20
3283380
 30
0.0
  0
VERTEX
  8
a_DXF_streams_nad27_edit
 10
544614
 20
3283394
 30
0.0
  0
VERTEX
  8
a_DXF_streams_nad27_edit
 10
544561
 20
3283457
 30
0.0
  0
SEQEND
  8
a_DXF_streams_nad27_edit
  0
POLYLINE
  8
a_DXF_streams_nad27_edit
 66
1
 40
47.9999845
 41
47.9999845
 62
5
 10
534976
 20
3282870
 30
0.0
  0
VERTEX
  8
a_DXF_streams_nad27_edit
 10
534976
 20
3282870
 30
0.0
  0
VERTEX
  8
a_DXF_streams_nad27_edit
 10
534965
 20
3282893
 30
0.0
  0
VERTEX
  8
a_DXF_streams_nad27_edit
 10
534953
 20
3282907
 30
0.0
  0
VERTEX
  8
a_DXF_streams_nad27_edit
 10
534913
 20
3282936
 30
0.0
  0
VERTEX
  8
a_DXF_streams_nad27_edit
 10
534850
 20
3283012
 30
0.0
  0
VERTEX
  8
a_DXF_streams_nad27_edit
 10
534840
 20
3283019
 30
0.0
  0
VERTEX
  8
a_DXF_streams_nad27_edit
 10
534802
 20
3283033
 30
0.0
  0
VERTEX
  8
a_DXF_streams_nad27_edit
 10
534786
 20
3283042
 30
0.0
  0
VERTEX
  8
a_DXF_streams_nad27_edit
 10
534758
 20
3283068
 30
0.0
  0
VERTEX
  8
a_DXF_streams_nad27_edit
 10
534721
 20
3283118
 30
0.0
  0
VERTEX
  8
a_DXF_streams_nad27_edit
 10
534706
 20
3283148
 30
0.0
  0
VERTEX
  8
a_DXF_streams_nad27_edit
 10
534701
 20
3283167
 30
0.0
  0
VERTEX
  8
a_DXF_streams_nad27_edit
 10
534698
 20
3283254
 30
0.0
  0
VERTEX
  8
a_DXF_streams_nad27_edit
 10
534586
 20
3283497
 30
0.0
  0
VERTEX
  8
a_DXF_streams_nad27_edit
 10
534581
 20
3283545
 30
0.0
  0
VERTEX
  8
a_DXF_streams_nad27_edit
 10
534574
 20
3283570
 30
0.0
  0
SEQEND
  8
a_DXF_streams_nad27_edit
  0
POLYLINE
  8
a_DXF_streams_nad27_edit
 66
1
 40
47.9999845
 41
47.9999845
 62
5
 10
534574
 20
3283570
 30
0.0
  0
VERTEX
  8
a_DXF_streams_nad27_edit
 10
534574
 20
3283570
 30
0.0
  0
VERTEX
  8
a_DXF_streams_nad27_edit
 10
534625
 20
3283654
 30
0.0
  0
VERTEX
  8
a_DXF_streams_nad27_edit
 10
534628
 20
3283672
 30
0.0
  0
VERTEX
  8
a_DXF_streams_nad27_edit
 10
534627
 20
3283690
 30
0.0
  0
VERTEX
  8
a_DXF_streams_nad27_edit
 10
534621
 20
3283708
 30
0.0
  0
VERTEX
  8
a_DXF_streams_nad27_edit
 10
534604
 20
3283733
 30
0.0
  0
VERTEX
  8
a_DXF_streams_nad27_edit
 10
534470
 20
3283858
 30
0.0
  0
VERTEX
  8
a_DXF_streams_nad27_edit
 10
534453
 20
3283880
 30
0.0
  0
SEQEND
  8
a_DXF_streams_nad27_edit
  0
POLYLINE
  8
a_DXF_streams_nad27_edit
 66
1
 40
47.9999845
 41
47.9999845
 62
5
 10
546092
 20
3282972
 30
0.0
  0
VERTEX
  8
a_DXF_streams_nad27_edit
 10
546092
 20
3282972
 30
0.0
  0
VERTEX
  8
a_DXF_streams_nad27_edit
 10
546030
 20
3283032
 30
0.0
  0
VERTEX
  8
a_DXF_streams_nad27_edit
 10
546018
 20
3283070
 30
0.0
  0
VERTEX
  8
a_DXF_streams_nad27_edit
 10
546015
 20
3283143
 30
0.0
  0
VERTEX
  8
a_DXF_streams_nad27_edit
 10
546016
 20
3283177
 30
0.0
  0
VERTEX
  8
a_DXF_streams_nad27_edit
 10
546021
 20
3283199
 30
0.0
  0
VERTEX
  8
a_DXF_streams_nad27_edit
 10
546062
 20
3283298
 30
0.0
  0
VERTEX
  8
a_DXF_streams_nad27_edit
 10
546104
 20
3283418
 30
0.0
  0
VERTEX
  8
a_DXF_streams_nad27_edit
 10
546110
 20
3283450
 30
0.0
  0
VERTEX
  8
a_DXF_streams_nad27_edit
 10
546110
 20
3283483
 30
0.0
  0
VERTEX
  8
a_DXF_streams_nad27_edit
 10
546097
 20
3283533
 30
0.0
  0
VERTEX
  8
a_DXF_streams_nad27_edit
 10
546010
 20
3283708
 30
0.0
  0
VERTEX
  8
a_DXF_streams_nad27_edit
 10
546002
 20
3283737
 30
0.0
  0
VERTEX
  8
a_DXF_streams_nad27_edit
 10
545999
 20
3283778
 30
0.0
  0
VERTEX
  8
a_DXF_streams_nad27_edit
 10
546015
 20
3283895
 30
0.0
  0
SEQEND
  8
a_DXF_streams_nad27_edit
  0
POLYLINE
  8
a_DXF_streams_nad27_edit
 66
1
 40
47.9999845
 41
47.9999845
 62
5
 10
538463
 20
3283023
 30
0.0
  0
VERTEX
  8
a_DXF_streams_nad27_edit
 10
538463
 20
3283023
 30
0.0
  0
VERTEX
  8
a_DXF_streams_nad27_edit
 10
538474
 20
3283048
 30
0.0
  0
VERTEX
  8
a_DXF_streams_nad27_edit
 10
538506
 20
3283086
 30
0.0
  0
VERTEX
  8
a_DXF_streams_nad27_edit
 10
538532
 20
3283146
 30
0.0
  0
VERTEX
  8
a_DXF_streams_nad27_edit
 10
538539
 20
3283189
 30
0.0
  0
VERTEX
  8
a_DXF_streams_nad27_edit
 10
538537
 20
3283214
 30
0.0
  0
VERTEX
  8
a_DXF_streams_nad27_edit
 10
538522
 20
3283247
 30
0.0
  0
VERTEX
  8
a_DXF_streams_nad27_edit
 10
538332
 20
3283450
 30
0.0
  0
VERTEX
  8
a_DXF_streams_nad27_edit
 10
538319
 20
3283470
 30
0.0
  0
VERTEX
  8
a_DXF_streams_nad27_edit
 10
538310
 20
3283493
 30
0.0
  0
VERTEX
  8
a_DXF_streams_nad27_edit
 10
538299
 20
3283541
 30
0.0
  0
VERTEX
  8
a_DXF_streams_nad27_edit
 10
538298
 20
3283555
 30
0.0
  0
VERTEX
  8
a_DXF_streams_nad27_edit
 10
538305
 20
3283597
 30
0.0
  0
VERTEX
  8
a_DXF_streams_nad27_edit
 10
538305
 20
3283615
 30
0.0
  0
VERTEX
  8
a_DXF_streams_nad27_edit
 10
538297
 20
3283645
 30
0.0
  0
VERTEX
  8
a_DXF_streams_nad27_edit
 10
538277
 20
3283694
 30
0.0
  0
VERTEX
  8
a_DXF_streams_nad27_edit
 10
538261
 20
3283717
 30
0.0
  0
VERTEX
  8
a_DXF_streams_nad27_edit
 10
538218
 20
3283765
 30
0.0
  0
VERTEX
  8
a_DXF_streams_nad27_edit
 10
538170
 20
3283806
 30
0.0
  0
VERTEX
  8
a_DXF_streams_nad27_edit
 10
538122
 20
3283841
 30
0.0
  0
VERTEX
  8
a_DXF_streams_nad27_edit
 10
538099
 20
3283866
 30
0.0
  0
VERTEX
  8
a_DXF_streams_nad27_edit
 10
538081
 20
3283893
 30
0.0
  0
VERTEX
  8
a_DXF_streams_nad27_edit
 10
538077
 20
3283905
 30
0.0
  0
VERTEX
  8
a_DXF_streams_nad27_edit
 10
538080
 20
3283947
 30
0.0
  0
VERTEX
  8
a_DXF_streams_nad27_edit
 10
538079
 20
3283963
 30
0.0
  0
VERTEX
  8
a_DXF_streams_nad27_edit
 10
538069
 20
3283973
 30
0.0
  0
VERTEX
  8
a_DXF_streams_nad27_edit
 10
538036
 20
3283977
 30
0.0
  0
SEQEND
  8
a_DXF_streams_nad27_edit
  0
POLYLINE
  8
a_DXF_streams_nad27_edit
 66
1
 40
47.9999845
 41
47.9999845
 62
5
 10
544561
 20
3283457
 30
0.0
  0
VERTEX
  8
a_DXF_streams_nad27_edit
 10
544561
 20
3283457
 30
0.0
  0
VERTEX
  8
a_DXF_streams_nad27_edit
 10
544486
 20
3283540
 30
0.0
  0
VERTEX
  8
a_DXF_streams_nad27_edit
 10
544443
 20
3283596
 30
0.0
  0
VERTEX
  8
a_DXF_streams_nad27_edit
 10
544387
 20
3283704
 30
0.0
  0
VERTEX
  8
a_DXF_streams_nad27_edit
 10
544334
 20
3283763
 30
0.0
  0
VERTEX
  8
a_DXF_streams_nad27_edit
 10
544268
 20
3283817
 30
0.0
  0
VERTEX
  8
a_DXF_streams_nad27_edit
 10
544248
 20
3283838
 30
0.0
  0
VERTEX
  8
a_DXF_streams_nad27_edit
 10
544226
 20
3283877
 30
0.0
  0
VERTEX
  8
a_DXF_streams_nad27_edit
 10
544175
 20
3283997
 30
0.0
  0
SEQEND
  8
a_DXF_streams_nad27_edit
  0
POLYLINE
  8
a_DXF_streams_nad27_edit
 66
1
 40
47.9999845
 41
47.9999845
 62
5
 10
541474
 20
3283333
 30
0.0
  0
VERTEX
  8
a_DXF_streams_nad27_edit
 10
541474
 20
3283333
 30
0.0
  0
VERTEX
  8
a_DXF_streams_nad27_edit
 10
541357
 20
3283477
 30
0.0
  0
VERTEX
  8
a_DXF_streams_nad27_edit
 10
541349
 20
3283494
 30
0.0
  0
VERTEX
  8
a_DXF_streams_nad27_edit
 10
541347
 20
3283514
 30
0.0
  0
VERTEX
  8
a_DXF_streams_nad27_edit
 10
541349
 20
3283528
 30
0.0
  0
VERTEX
  8
a_DXF_streams_nad27_edit
 10
541357
 20
3283545
 30
0.0
  0
VERTEX
  8
a_DXF_streams_nad27_edit
 10
541376
 20
3283564
 30
0.0
  0
VERTEX
  8
a_DXF_streams_nad27_edit
 10
541418
 20
3283583
 30
0.0
  0
VERTEX
  8
a_DXF_streams_nad27_edit
 10
541430
 20
3283584
 30
0.0
  0
VERTEX
  8
a_DXF_streams_nad27_edit
 10
541481
 20
3283580
 30
0.0
  0
VERTEX
  8
a_DXF_streams_nad27_edit
 10
541504
 20
3283591
 30
0.0
  0
VERTEX
  8
a_DXF_streams_nad27_edit
 10
541515
 20
3283602
 30
0.0
  0
VERTEX
  8
a_DXF_streams_nad27_edit
 10
541521
 20
3283648
 30
0.0
  0
VERTEX
  8
a_DXF_streams_nad27_edit
 10
541518
 20
3283780
 30
0.0
  0
VERTEX
  8
a_DXF_streams_nad27_edit
 10
541523
 20
3283803
 30
0.0
  0
VERTEX
  8
a_DXF_streams_nad27_edit
 10
541576
 20
3283895
 30
0.0
  0
VERTEX
  8
a_DXF_streams_nad27_edit
 10
541614
 20
3284019
 30
0.0
  0
VERTEX
  8
a_DXF_streams_nad27_edit
 10
541622
 20
3284060
 30
0.0
  0
VERTEX
  8
a_DXF_streams_nad27_edit
 10
541623
 20
3284101
 30
0.0
  0
VERTEX
  8
a_DXF_streams_nad27_edit
 10
541608
 20
3284175
 30
0.0
  0
VERTEX
  8
a_DXF_streams_nad27_edit
 10
541588
 20
3284219
 30
0.0
  0
VERTEX
  8
a_DXF_streams_nad27_edit
 10
541558
 20
3284267
 30
0.0
  0
VERTEX
  8
a_DXF_streams_nad27_edit
 10
541511
 20
3284322
 30
0.0
  0
VERTEX
  8
a_DXF_streams_nad27_edit
 10
541454
 20
3284423
 30
0.0
  0
SEQEND
  8
a_DXF_streams_nad27_edit
  0
POLYLINE
  8
a_DXF_streams_nad27_edit
 66
1
 40
47.9999845
 41
47.9999845
 62
5
 10
538036
 20
3283977
 30
0.0
  0
VERTEX
  8
a_DXF_streams_nad27_edit
 10
538036
 20
3283977
 30
0.0
  0
VERTEX
  8
a_DXF_streams_nad27_edit
 10
537972
 20
3283977
 30
0.0
  0
VERTEX
  8
a_DXF_streams_nad27_edit
 10
537953
 20
3283983
 30
0.0
  0
VERTEX
  8
a_DXF_streams_nad27_edit
 10
537939
 20
3284000
 30
0.0
  0
VERTEX
  8
a_DXF_streams_nad27_edit
 10
537897
 20
3284080
 30
0.0
  0
VERTEX
  8
a_DXF_streams_nad27_edit
 10
537889
 20
3284089
 30
0.0
  0
VERTEX
  8
a_DXF_streams_nad27_edit
 10
537855
 20
3284110
 30
0.0
  0
VERTEX
  8
a_DXF_streams_nad27_edit
 10
537836
 20
3284126
 30
0.0
  0
VERTEX
  8
a_DXF_streams_nad27_edit
 10
537833
 20
3284136
 30
0.0
  0
VERTEX
  8
a_DXF_streams_nad27_edit
 10
537827
 20
3284288
 30
0.0
  0
VERTEX
  8
a_DXF_streams_nad27_edit
 10
537820
 20
3284309
 30
0.0
  0
VERTEX
  8
a_DXF_streams_nad27_edit
 10
537810
 20
3284317
 30
0.0
  0
VERTEX
  8
a_DXF_streams_nad27_edit
 10
537764
 20
3284335
 30
0.0
  0
VERTEX
  8
a_DXF_streams_nad27_edit
 10
537743
 20
3284354
 30
0.0
  0
VERTEX
  8
a_DXF_streams_nad27_edit
 10
537728
 20
3284377
 30
0.0
  0
VERTEX
  8
a_DXF_streams_nad27_edit
 10
537684
 20
3284491
 30
0.0
  0
VERTEX
  8
a_DXF_streams_nad27_edit
 10
537653
 20
3284560
 30
0.0
  0
VERTEX
  8
a_DXF_streams_nad27_edit
 10
537601
 20
3284647
 30
0.0
  0
VERTEX
  8
a_DXF_streams_nad27_edit
 10
537587
 20
3284678
 30
0.0
  0
VERTEX
  8
a_DXF_streams_nad27_edit
 10
537552
 20
3284821
 30
0.0
  0
SEQEND
  8
a_DXF_streams_nad27_edit
  0
POLYLINE
  8
a_DXF_streams_nad27_edit
 66
1
 40
47.9999845
 41
47.9999845
 62
5
 10
544175
 20
3283997
 30
0.0
  0
VERTEX
  8
a_DXF_streams_nad27_edit
 10
544175
 20
3283997
 30
0.0
  0
VERTEX
  8
a_DXF_streams_nad27_edit
 10
544140
 20
3284070
 30
0.0
  0
VERTEX
  8
a_DXF_streams_nad27_edit
 10
544125
 20
3284090
 30
0.0
  0
VERTEX
  8
a_DXF_streams_nad27_edit
 10
544106
 20
3284106
 30
0.0
  0
VERTEX
  8
a_DXF_streams_nad27_edit
 10
544032
 20
3284151
 30
0.0
  0
VERTEX
  8
a_DXF_streams_nad27_edit
 10
543981
 20
3284167
 30
0.0
  0
VERTEX
  8
a_DXF_streams_nad27_edit
 10
543945
 20
3284160
 30
0.0
  0
VERTEX
  8
a_DXF_streams_nad27_edit
 10
543909
 20
3284143
 30
0.0
  0
VERTEX
  8
a_DXF_streams_nad27_edit
 10
543840
 20
3284089
 30
0.0
  0
VERTEX
  8
a_DXF_streams_nad27_edit
 10
543776
 20
3284061
 30
0.0
  0
VERTEX
  8
a_DXF_streams_nad27_edit
 10
543754
 20
3284057
 30
0.0
  0
VERTEX
  8
a_DXF_streams_nad27_edit
 10
543738
 20
3284058
 30
0.0
  0
VERTEX
  8
a_DXF_streams_nad27_edit
 10
543671
 20
3284076
 30
0.0
  0
VERTEX
  8
a_DXF_streams_nad27_edit
 10
543605
 20
3284070
 30
0.0
  0
VERTEX
  8
a_DXF_streams_nad27_edit
 10
543550
 20
3284058
 30
0.0
  0
VERTEX
  8
a_DXF_streams_nad27_edit
 10
543473
 20
3284032
 30
0.0
  0
VERTEX
  8
a_DXF_streams_nad27_edit
 10
543437
 20
3284027
 30
0.0
  0
VERTEX
  8
a_DXF_streams_nad27_edit
 10
543400
 20
3284028
 30
0.0
  0
VERTEX
  8
a_DXF_streams_nad27_edit
 10
543355
 20
3284038
 30
0.0
  0
VERTEX
  8
a_DXF_streams_nad27_edit
 10
543335
 20
3284050
 30
0.0
  0
VERTEX
  8
a_DXF_streams_nad27_edit
 10
543323
 20
3284063
 30
0.0
  0
VERTEX
  8
a_DXF_streams_nad27_edit
 10
543304
 20
3284091
 30
0.0
  0
VERTEX
  8
a_DXF_streams_nad27_edit
 10
543292
 20
3284120
 30
0.0
  0
VERTEX
  8
a_DXF_streams_nad27_edit
 10
543286
 20
3284166
 30
0.0
  0
VERTEX
  8
a_DXF_streams_nad27_edit
 10
543288
 20
3284178
 30
0.0
  0
VERTEX
  8
a_DXF_streams_nad27_edit
 10
543311
 20
3284234
 30
0.0
  0
VERTEX
  8
a_DXF_streams_nad27_edit
 10
543306
 20
3284272
 30
0.0
  0
VERTEX
  8
a_DXF_streams_nad27_edit
 10
543279
 20
3284357
 30
0.0
  0
VERTEX
  8
a_DXF_streams_nad27_edit
 10
543220
 20
3284462
 30
0.0
  0
VERTEX
  8
a_DXF_streams_nad27_edit
 10
543210
 20
3284506
 30
0.0
  0
VERTEX
  8
a_DXF_streams_nad27_edit
 10
543208
 20
3284535
 30
0.0
  0
VERTEX
  8
a_DXF_streams_nad27_edit
 10
543211
 20
3284591
 30
0.0
  0
VERTEX
  8
a_DXF_streams_nad27_edit
 10
543232
 20
3284684
 30
0.0
  0
VERTEX
  8
a_DXF_streams_nad27_edit
 10
543236
 20
3284715
 30
0.0
  0
VERTEX
  8
a_DXF_streams_nad27_edit
 10
543219
 20
3284837
 30
0.0
  0
SEQEND
  8
a_DXF_streams_nad27_edit
  0
POLYLINE
  8
a_DXF_streams_nad27_edit
 66
1
 40
47.9999845
 41
47.9999845
 62
5
 10
546015
 20
3283895
 30
0.0
  0
VERTEX
  8
a_DXF_streams_nad27_edit
 10
546015
 20
3283895
 30
0.0
  0
VERTEX
  8
a_DXF_streams_nad27_edit
 10
546036
 20
3283999
 30
0.0
  0
VERTEX
  8
a_DXF_streams_nad27_edit
 10
546039
 20
3284032
 30
0.0
  0
VERTEX
  8
a_DXF_streams_nad27_edit
 10
546036
 20
3284056
 30
0.0
  0
VERTEX
  8
a_DXF_streams_nad27_edit
 10
546013
 20
3284128
 30
0.0
  0
VERTEX
  8
a_DXF_streams_nad27_edit
 10
546005
 20
3284161
 30
0.0
  0
VERTEX
  8
a_DXF_streams_nad27_edit
 10
545995
 20
3284283
 30
0.0
  0
VERTEX
  8
a_DXF_streams_nad27_edit
 10
545966
 20
3284442
 30
0.0
  0
VERTEX
  8
a_DXF_streams_nad27_edit
 10
545930
 20
3284573
 30
0.0
  0
VERTEX
  8
a_DXF_streams_nad27_edit
 10
545925
 20
3284604
 30
0.0
  0
VERTEX
  8
a_DXF_streams_nad27_edit
 10
545926
 20
3284698
 30
0.0
  0
VERTEX
  8
a_DXF_streams_nad27_edit
 10
545923
 20
3284739
 30
0.0
  0
VERTEX
  8
a_DXF_streams_nad27_edit
 10
545902
 20
3284815
 30
0.0
  0
VERTEX
  8
a_DXF_streams_nad27_edit
 10
545881
 20
3284867
 30
0.0
  0
VERTEX
  8
a_DXF_streams_nad27_edit
 10
545815
 20
3284997
 30
0.0
  0
SEQEND
  8
a_DXF_streams_nad27_edit
  0
POLYLINE
  8
a_DXF_streams_nad27_edit
 66
1
 40
47.9999845
 41
47.9999845
 62
5
 10
534453
 20
3283880
 30
0.0
  0
VERTEX
  8
a_DXF_streams_nad27_edit
 10
534453
 20
3283880
 30
0.0
  0
VERTEX
  8
a_DXF_streams_nad27_edit
 10
534431
 20
3283922
 30
0.0
  0
VERTEX
  8
a_DXF_streams_nad27_edit
 10
534414
 20
3283976
 30
0.0
  0
VERTEX
  8
a_DXF_streams_nad27_edit
 10
534392
 20
3284012
 30
0.0
  0
VERTEX
  8
a_DXF_streams_nad27_edit
 10
534347
 20
3284064
 30
0.0
  0
VERTEX
  8
a_DXF_streams_nad27_edit
 10
534310
 20
3284115
 30
0.0
  0
VERTEX
  8
a_DXF_streams_nad27_edit
 10
534269
 20
3284188
 30
0.0
  0
VERTEX
  8
a_DXF_streams_nad27_edit
 10
534250
 20
3284233
 30
0.0
  0
VERTEX
  8
a_DXF_streams_nad27_edit
 10
534200
 20
3284400
 30
0.0
  0
VERTEX
  8
a_DXF_streams_nad27_edit
 10
534230
 20
3284432
 30
0.0
  0
VERTEX
  8
a_DXF_streams_nad27_edit
 10
534229
 20
3284441
 30
0.0
  0
VERTEX
  8
a_DXF_streams_nad27_edit
 10
534204
 20
3284481
 30
0.0
  0
VERTEX
  8
a_DXF_streams_nad27_edit
 10
534168
 20
3284552
 30
0.0
  0
VERTEX
  8
a_DXF_streams_nad27_edit
 10
534054
 20
3284730
 30
0.0
  0
VERTEX
  8
a_DXF_streams_nad27_edit
 10
534054
 20
3284739
 30
0.0
  0
VERTEX
  8
a_DXF_streams_nad27_edit
 10
534101
 20
3284768
 30
0.0
  0
VERTEX
  8
a_DXF_streams_nad27_edit
 10
534113
 20
3284781
 30
0.0
  0
VERTEX
  8
a_DXF_streams_nad27_edit
 10
534124
 20
3284815
 30
0.0
  0
VERTEX
  8
a_DXF_streams_nad27_edit
 10
534121
 20
3284842
 30
0.0
  0
VERTEX
  8
a_DXF_streams_nad27_edit
 10
534115
 20
3284857
 30
0.0
  0
VERTEX
  8
a_DXF_streams_nad27_edit
 10
534062
 20
3284942
 30
0.0
  0
VERTEX
  8
a_DXF_streams_nad27_edit
 10
534057
 20
3284960
 30
0.0
  0
VERTEX
  8
a_DXF_streams_nad27_edit
 10
534057
 20
3284994
 30
0.0
  0
VERTEX
  8
a_DXF_streams_nad27_edit
 10
534053
 20
3285004
 30
0.0
  0
VERTEX
  8
a_DXF_streams_nad27_edit
 10
534039
 20
3285016
 30
0.0
  0
VERTEX
  8
a_DXF_streams_nad27_edit
 10
533985
 20
3285044
 30
0.0
  0
VERTEX
  8
a_DXF_streams_nad27_edit
 10
533971
 20
3285057
 30
0.0
  0
SEQEND
  8
a_DXF_streams_nad27_edit
  0
POLYLINE
  8
a_DXF_streams_nad27_edit
 66
1
 40
47.9999845
 41
47.9999845
 62
5
 10
537552
 20
3284821
 30
0.0
  0
VERTEX
  8
a_DXF_streams_nad27_edit
 10
537552
 20
3284821
 30
0.0
  0
VERTEX
  8
a_DXF_streams_nad27_edit
 10
537486
 20
3285064
 30
0.0
  0
VERTEX
  8
a_DXF_streams_nad27_edit
 10
537482
 20
3285093
 30
0.0
  0
VERTEX
  8
a_DXF_streams_nad27_edit
 10
537486
 20
3285121
 30
0.0
  0
VERTEX
  8
a_DXF_streams_nad27_edit
 10
537503
 20
3285166
 30
0.0
  0
SEQEND
  8
a_DXF_streams_nad27_edit
  0
POLYLINE
  8
a_DXF_streams_nad27_edit
 66
1
 40
47.9999845
 41
47.9999845
 62
5
 10
541454
 20
3284423
 30
0.0
  0
VERTEX
  8
a_DXF_streams_nad27_edit
 10
541454
 20
3284423
 30
0.0
  0
VERTEX
  8
a_DXF_streams_nad27_edit
 10
541377
 20
3284580
 30
0.0
  0
VERTEX
  8
a_DXF_streams_nad27_edit
 10
541367
 20
3284617
 30
0.0
  0
VERTEX
  8
a_DXF_streams_nad27_edit
 10
541365
 20
3284656
 30
0.0
  0
VERTEX
  8
a_DXF_streams_nad27_edit
 10
541379
 20
3284803
 30
0.0
  0
VERTEX
  8
a_DXF_streams_nad27_edit
 10
541366
 20
3284924
 30
0.0
  0
VERTEX
  8
a_DXF_streams_nad27_edit
 10
541341
 20
3285003
 30
0.0
  0
VERTEX
  8
a_DXF_streams_nad27_edit
 10
541334
 20
3285043
 30
0.0
  0
VERTEX
  8
a_DXF_streams_nad27_edit
 10
541348
 20
3285105
 30
0.0
  0
VERTEX
  8
a_DXF_streams_nad27_edit
 10
541407
 20
3285295
 30
0.0
  0
VERTEX
  8
a_DXF_streams_nad27_edit
 10
541421
 20
3285317
 30
0.0
  0
VERTEX
  8
a_DXF_streams_nad27_edit
 10
541449
 20
3285348
 30
0.0
  0
VERTEX
  8
a_DXF_streams_nad27_edit
 10
541460
 20
3285353
 30
0.0
  0
VERTEX
  8
a_DXF_streams_nad27_edit
 10
541512
 20
3285343
 30
0.0
  0
VERTEX
  8
a_DXF_streams_nad27_edit
 10
541527
 20
3285349
 30
0.0
  0
SEQEND
  8
a_DXF_streams_nad27_edit
  0
POLYLINE
  8
a_DXF_streams_nad27_edit
 66
1
 40
47.9999845
 41
47.9999845
 62
5
 10
541527
 20
3285349
 30
0.0
  0
VERTEX
  8
a_DXF_streams_nad27_edit
 10
541527
 20
3285349
 30
0.0
  0
VERTEX
  8
a_DXF_streams_nad27_edit
 10
541547
 20
3285367
 30
0.0
  0
VERTEX
  8
a_DXF_streams_nad27_edit
 10
541554
 20
3285389
 30
0.0
  0
VERTEX
  8
a_DXF_streams_nad27_edit
 10
541553
 20
3285412
 30
0.0
  0
VERTEX
  8
a_DXF_streams_nad27_edit
 10
541541
 20
3285446
 30
0.0
  0
VERTEX
  8
a_DXF_streams_nad27_edit
 10
541475
 20
3285525
 30
0.0
  0
VERTEX
  8
a_DXF_streams_nad27_edit
 10
541461
 20
3285556
 30
0.0
  0
VERTEX
  8
a_DXF_streams_nad27_edit
 10
541465
 20
3285587
 30
0.0
  0
VERTEX
  8
a_DXF_streams_nad27_edit
 10
541477
 20
3285618
 30
0.0
  0
VERTEX
  8
a_DXF_streams_nad27_edit
 10
541508
 20
3285660
 30
0.0
  0
VERTEX
  8
a_DXF_streams_nad27_edit
 10
541514
 20
3285674
 30
0.0
  0
VERTEX
  8
a_DXF_streams_nad27_edit
 10
541512
 20
3285697
 30
0.0
  0
VERTEX
  8
a_DXF_streams_nad27_edit
 10
541501
 20
3285720
 30
0.0
  0
VERTEX
  8
a_DXF_streams_nad27_edit
 10
541468
 20
3285754
 30
0.0
  0
VERTEX
  8
a_DXF_streams_nad27_edit
 10
541462
 20
3285780
 30
0.0
  0
VERTEX
  8
a_DXF_streams_nad27_edit
 10
541464
 20
3285822
 30
0.0
  0
VERTEX
  8
a_DXF_streams_nad27_edit
 10
541491
 20
3285855
 30
0.0
  0
VERTEX
  8
a_DXF_streams_nad27_edit
 10
541495
 20
3285870
 30
0.0
  0
SEQEND
  8
a_DXF_streams_nad27_edit
  0
POLYLINE
  8
a_DXF_streams_nad27_edit
 66
1
 40
47.9999845
 41
47.9999845
 62
5
 10
537503
 20
3285166
 30
0.0
  0
VERTEX
  8
a_DXF_streams_nad27_edit
 10
537503
 20
3285166
 30
0.0
  0
VERTEX
  8
a_DXF_streams_nad27_edit
 10
537543
 20
3285294
 30
0.0
  0
VERTEX
  8
a_DXF_streams_nad27_edit
 10
537544
 20
3285314
 30
0.0
  0
VERTEX
  8
a_DXF_streams_nad27_edit
 10
537520
 20
3285401
 30
0.0
  0
VERTEX
  8
a_DXF_streams_nad27_edit
 10
537525
 20
3285486
 30
0.0
  0
VERTEX
  8
a_DXF_streams_nad27_edit
 10
537512
 20
3285585
 30
0.0
  0
VERTEX
  8
a_DXF_streams_nad27_edit
 10
537497
 20
3285655
 30
0.0
  0
VERTEX
  8
a_DXF_streams_nad27_edit
 10
537463
 20
3285781
 30
0.0
  0
VERTEX
  8
a_DXF_streams_nad27_edit
 10
537382
 20
3286011
 30
0.0
  0
VERTEX
  8
a_DXF_streams_nad27_edit
 10
537360
 20
3286084
 30
0.0
  0
VERTEX
  8
a_DXF_streams_nad27_edit
 10
537338
 20
3286117
 30
0.0
  0
VERTEX
  8
a_DXF_streams_nad27_edit
 10
537318
 20
3286134
 30
0.0
  0
VERTEX
  8
a_DXF_streams_nad27_edit
 10
537194
 20
3286201
 30
0.0
  0
VERTEX
  8
a_DXF_streams_nad27_edit
 10
537164
 20
3286238
 30
0.0
  0
VERTEX
  8
a_DXF_streams_nad27_edit
 10
537150
 20
3286242
 30
0.0
  0
SEQEND
  8
a_DXF_streams_nad27_edit
  0
POLYLINE
  8
a_DXF_streams_nad27_edit
 66
1
 40
47.9999845
 41
47.9999845
 62
5
 10
537151.261
 20
3286247.63
 30
0.0
  0
VERTEX
  8
a_DXF_streams_nad27_edit
 10
537151.261
 20
3286247.63
 30
0.0
  0
VERTEX
  8
a_DXF_streams_nad27_edit
 10
537155.167
 20
3286317.95
 30
0.0
  0
VERTEX
  8
a_DXF_streams_nad27_edit
 10
537172.747
 20
3286361.89
 30
0.0
  0
VERTEX
  8
a_DXF_streams_nad27_edit
 10
537180.56
 20
3286410.73
 30
0.0
  0
VERTEX
  8
a_DXF_streams_nad27_edit
 10
537177.63
 20
3286426.35
 30
0.0
  0
VERTEX
  8
a_DXF_streams_nad27_edit
 10
537162.981
 20
3286459.56
 30
0.0
  0
SEQEND
  8
a_DXF_streams_nad27_edit
  0
POLYLINE
  8
a_DXF_streams_nad27_edit
 66
1
 40
47.9999845
 41
47.9999845
 62
5
 10
541495
 20
3285870
 30
0.0
  0
VERTEX
  8
a_DXF_streams_nad27_edit
 10
541495
 20
3285870
 30
0.0
  0
VERTEX
  8
a_DXF_streams_nad27_edit
 10
541403
 20
3286080
 30
0.0
  0
VERTEX
  8
a_DXF_streams_nad27_edit
 10
541362
 20
3286133
 30
0.0
  0
VERTEX
  8
a_DXF_streams_nad27_edit
 10
541356
 20
3286152
 30
0.0
  0
VERTEX
  8
a_DXF_streams_nad27_edit
 10
541356
 20
3286174
 30
0.0
  0
VERTEX
  8
a_DXF_streams_nad27_edit
 10
541365
 20
3286205
 30
0.0
  0
VERTEX
  8
a_DXF_streams_nad27_edit
 10
541415
 20
3286269
 30
0.0
  0
VERTEX
  8
a_DXF_streams_nad27_edit
 10
541435
 20
3286315
 30
0.0
  0
VERTEX
  8
a_DXF_streams_nad27_edit
 10
541427
 20
3286457
 30
0.0
  0
VERTEX
  8
a_DXF_streams_nad27_edit
 10
541433
 20
3286483
 30
0.0
  0
VERTEX
  8
a_DXF_streams_nad27_edit
 10
541455
 20
3286522
 30
0.0
  0
VERTEX
  8
a_DXF_streams_nad27_edit
 10
541554
 20
3286641
 30
0.0
  0
VERTEX
  8
a_DXF_streams_nad27_edit
 10
541571
 20
3286692
 30
0.0
  0
VERTEX
  8
a_DXF_streams_nad27_edit
 10
541606
 20
3286756
 30
0.0
  0
SEQEND
  8
a_DXF_streams_nad27_edit
  0
POLYLINE
  8
a_DXF_streams_nad27_edit
 66
1
 40
47.9999845
 41
47.9999845
 62
5
 10
543070
 20
3285536
 30
0.0
  0
VERTEX
  8
a_DXF_streams_nad27_edit
 10
543070
 20
3285536
 30
0.0
  0
VERTEX
  8
a_DXF_streams_nad27_edit
 10
543191
 20
3285597
 30
0.0
  0
VERTEX
  8
a_DXF_streams_nad27_edit
 10
543212
 20
3285614
 30
0.0
  0
VERTEX
  8
a_DXF_streams_nad27_edit
 10
543330
 20
3285764
 30
0.0
  0
VERTEX
  8
a_DXF_streams_nad27_edit
 10
543401
 20
3285862
 30
0.0
  0
VERTEX
  8
a_DXF_streams_nad27_edit
 10
543425
 20
3285887
 30
0.0
  0
VERTEX
  8
a_DXF_streams_nad27_edit
 10
543510
 20
3285948
 30
0.0
  0
VERTEX
  8
a_DXF_streams_nad27_edit
 10
543611
 20
3286008
 30
0.0
  0
VERTEX
  8
a_DXF_streams_nad27_edit
 10
543626
 20
3286022
 30
0.0
  0
VERTEX
  8
a_DXF_streams_nad27_edit
 10
543676
 20
3286109
 30
0.0
  0
VERTEX
  8
a_DXF_streams_nad27_edit
 10
543692
 20
3286127
 30
0.0
  0
VERTEX
  8
a_DXF_streams_nad27_edit
 10
543711
 20
3286139
 30
0.0
  0
VERTEX
  8
a_DXF_streams_nad27_edit
 10
543803
 20
3286170
 30
0.0
  0
VERTEX
  8
a_DXF_streams_nad27_edit
 10
543912
 20
3286203
 30
0.0
  0
VERTEX
  8
a_DXF_streams_nad27_edit
 10
543927
 20
3286211
 30
0.0
  0
VERTEX
  8
a_DXF_streams_nad27_edit
 10
543936
 20
3286222
 30
0.0
  0
VERTEX
  8
a_DXF_streams_nad27_edit
 10
543947
 20
3286247
 30
0.0
  0
VERTEX
  8
a_DXF_streams_nad27_edit
 10
543967
 20
3286309
 30
0.0
  0
VERTEX
  8
a_DXF_streams_nad27_edit
 10
543978
 20
3286326
 30
0.0
  0
VERTEX
  8
a_DXF_streams_nad27_edit
 10
544023
 20
3286373
 30
0.0
  0
VERTEX
  8
a_DXF_streams_nad27_edit
 10
544058
 20
3286395
 30
0.0
  0
VERTEX
  8
a_DXF_streams_nad27_edit
 10
544106
 20
3286408
 30
0.0
  0
VERTEX
  8
a_DXF_streams_nad27_edit
 10
544115
 20
3286407
 30
0.0
  0
VERTEX
  8
a_DXF_streams_nad27_edit
 10
544159
 20
3286376
 30
0.0
  0
VERTEX
  8
a_DXF_streams_nad27_edit
 10
544169
 20
3286373
 30
0.0
  0
VERTEX
  8
a_DXF_streams_nad27_edit
 10
544178
 20
3286377
 30
0.0
  0
VERTEX
  8
a_DXF_streams_nad27_edit
 10
544230
 20
3286429
 30
0.0
  0
VERTEX
  8
a_DXF_streams_nad27_edit
 10
544350
 20
3286574
 30
0.0
  0
VERTEX
  8
a_DXF_streams_nad27_edit
 10
544433
 20
3286650
 30
0.0
  0
VERTEX
  8
a_DXF_streams_nad27_edit
 10
544476
 20
3286709
 30
0.0
  0
VERTEX
  8
a_DXF_streams_nad27_edit
 10
544567
 20
3286777
 30
0.0
  0
VERTEX
  8
a_DXF_streams_nad27_edit
 10
544597
 20
3286810
 30
0.0
  0
VERTEX
  8
a_DXF_streams_nad27_edit
 10
544613
 20
3286880
 30
0.0
  0
VERTEX
  8
a_DXF_streams_nad27_edit
 10
544633
 20
3286925
 30
0.0
  0
VERTEX
  8
a_DXF_streams_nad27_edit
 10
544642
 20
3286936
 30
0.0
  0
VERTEX
  8
a_DXF_streams_nad27_edit
 10
544653
 20
3286940
 30
0.0
  0
VERTEX
  8
a_DXF_streams_nad27_edit
 10
544669
 20
3286937
 30
0.0
  0
VERTEX
  8
a_DXF_streams_nad27_edit
 10
544794
 20
3286903
 30
0.0
  0
VERTEX
  8
a_DXF_streams_nad27_edit
 10
544809
 20
3286905
 30
0.0
  0
VERTEX
  8
a_DXF_streams_nad27_edit
 10
544820
 20
3286911
 30
0.0
  0
VERTEX
  8
a_DXF_streams_nad27_edit
 10
544911
 20
3286991
 30
0.0
  0
VERTEX
  8
a_DXF_streams_nad27_edit
 10
544960
 20
3287027
 30
0.0
  0
VERTEX
  8
a_DXF_streams_nad27_edit
 10
544973
 20
3287066
 30
0.0
  0
VERTEX
  8
a_DXF_streams_nad27_edit
 10
544985
 20
3287089
 30
0.0
  0
SEQEND
  8
a_DXF_streams_nad27_edit
  0
POLYLINE
  8
a_DXF_streams_nad27_edit
 66
1
 40
47.9999845
 41
47.9999845
 62
5
 10
544985
 20
3287089
 30
0.0
  0
VERTEX
  8
a_DXF_streams_nad27_edit
 10
544985
 20
3287089
 30
0.0
  0
VERTEX
  8
a_DXF_streams_nad27_edit
 10
545009
 20
3287095
 30
0.0
  0
SEQEND
  8
a_DXF_streams_nad27_edit
  0
POLYLINE
  8
a_DXF_streams_nad27_edit
 66
1
 40
47.9999845
 41
47.9999845
 62
5
 10
545009
 20
3287095
 30
0.0
  0
VERTEX
  8
a_DXF_streams_nad27_edit
 10
545009
 20
3287095
 30
0.0
  0
VERTEX
  8
a_DXF_streams_nad27_edit
 10
545032
 20
3287093
 30
0.0
  0
VERTEX
  8
a_DXF_streams_nad27_edit
 10
545055
 20
3287083
 30
0.0
  0
VERTEX
  8
a_DXF_streams_nad27_edit
 10
545139
 20
3287027
 30
0.0
  0
SEQEND
  8
a_DXF_streams_nad27_edit
  0
POLYLINE
  8
a_DXF_streams_nad27_edit
 66
1
 40
47.9999845
 41
47.9999845
 62
5
 10
545139
 20
3287027
 30
0.0
  0
VERTEX
  8
a_DXF_streams_nad27_edit
 10
545139
 20
3287027
 30
0.0
  0
VERTEX
  8
a_DXF_streams_nad27_edit
 10
545187
 20
3286993
 30
0.0
  0
VERTEX
  8
a_DXF_streams_nad27_edit
 10
545219
 20
3286980
 30
0.0
  0
VERTEX
  8
a_DXF_streams_nad27_edit
 10
545319
 20
3286951
 30
0.0
  0
VERTEX
  8
a_DXF_streams_nad27_edit
 10
545393
 20
3286916
 30
0.0
  0
VERTEX
  8
a_DXF_streams_nad27_edit
 10
545432
 20
3286904
 30
0.0
  0
VERTEX
  8
a_DXF_streams_nad27_edit
 10
545481
 20
3286907
 30
0.0
  0
VERTEX
  8
a_DXF_streams_nad27_edit
 10
545542
 20
3286929
 30
0.0
  0
VERTEX
  8
a_DXF_streams_nad27_edit
 10
545639
 20
3286984
 30
0.0
  0
VERTEX
  8
a_DXF_streams_nad27_edit
 10
545717
 20
3287016
 30
0.0
  0
VERTEX
  8
a_DXF_streams_nad27_edit
 10
545744
 20
3287023
 30
0.0
  0
VERTEX
  8
a_DXF_streams_nad27_edit
 10
545930
 20
3287054
 30
0.0
  0
VERTEX
  8
a_DXF_streams_nad27_edit
 10
545975
 20
3287068
 30
0.0
  0
VERTEX
  8
a_DXF_streams_nad27_edit
 10
546072
 20
3287110
 30
0.0
  0
VERTEX
  8
a_DXF_streams_nad27_edit
 10
546122
 20
3287139
 30
0.0
  0
VERTEX
  8
a_DXF_streams_nad27_edit
 10
546175
 20
3287194
 30
0.0
  0
VERTEX
  8
a_DXF_streams_nad27_edit
 10
546217
 20
3287226
 30
0.0
  0
SEQEND
  8
a_DXF_streams_nad27_edit
  0
POLYLINE
  8
a_DXF_streams_nad27_edit
 66
1
 40
47.9999845
 41
47.9999845
 62
5
 10
533971
 20
3285057
 30
0.0
  0
VERTEX
  8
a_DXF_streams_nad27_edit
 10
533971
 20
3285057
 30
0.0
  0
VERTEX
  8
a_DXF_streams_nad27_edit
 10
533975
 20
3285140
 30
0.0
  0
VERTEX
  8
a_DXF_streams_nad27_edit
 10
533972
 20
3285183
 30
0.0
  0
VERTEX
  8
a_DXF_streams_nad27_edit
 10
533919
 20
3285384
 30
0.0
  0
VERTEX
  8
a_DXF_streams_nad27_edit
 10
533882
 20
3285489
 30
0.0
  0
VERTEX
  8
a_DXF_streams_nad27_edit
 10
533878
 20
3285511
 30
0.0
  0
VERTEX
  8
a_DXF_streams_nad27_edit
 10
533882
 20
3285539
 30
0.0
  0
VERTEX
  8
a_DXF_streams_nad27_edit
 10
533905
 20
3285565
 30
0.0
  0
VERTEX
  8
a_DXF_streams_nad27_edit
 10
533917
 20
3285625
 30
0.0
  0
VERTEX
  8
a_DXF_streams_nad27_edit
 10
533903
 20
3285775
 30
0.0
  0
VERTEX
  8
a_DXF_streams_nad27_edit
 10
533951
 20
3285976
 30
0.0
  0
VERTEX
  8
a_DXF_streams_nad27_edit
 10
533948
 20
3285994
 30
0.0
  0
VERTEX
  8
a_DXF_streams_nad27_edit
 10
533903
 20
3286041
 30
0.0
  0
VERTEX
  8
a_DXF_streams_nad27_edit
 10
533893
 20
3286063
 30
0.0
  0
VERTEX
  8
a_DXF_streams_nad27_edit
 10
533875
 20
3286262
 30
0.0
  0
VERTEX
  8
a_DXF_streams_nad27_edit
 10
533870
 20
3286280
 30
0.0
  0
VERTEX
  8
a_DXF_streams_nad27_edit
 10
533833
 20
3286326
 30
0.0
  0
VERTEX
  8
a_DXF_streams_nad27_edit
 10
533819
 20
3286348
 30
0.0
  0
VERTEX
  8
a_DXF_streams_nad27_edit
 10
533783
 20
3286435
 30
0.0
  0
VERTEX
  8
a_DXF_streams_nad27_edit
 10
533766
 20
3286505
 30
0.0
  0
VERTEX
  8
a_DXF_streams_nad27_edit
 10
533764
 20
3286544
 30
0.0
  0
VERTEX
  8
a_DXF_streams_nad27_edit
 10
533770
 20
3286603
 30
0.0
  0
VERTEX
  8
a_DXF_streams_nad27_edit
 10
533786
 20
3286658
 30
0.0
  0
VERTEX
  8
a_DXF_streams_nad27_edit
 10
533788
 20
3286682
 30
0.0
  0
VERTEX
  8
a_DXF_streams_nad27_edit
 10
533786
 20
3286695
 30
0.0
  0
VERTEX
  8
a_DXF_streams_nad27_edit
 10
533773
 20
3286722
 30
0.0
  0
VERTEX
  8
a_DXF_streams_nad27_edit
 10
533709
 20
3286804
 30
0.0
  0
VERTEX
  8
a_DXF_streams_nad27_edit
 10
533706
 20
3286818
 30
0.0
  0
VERTEX
  8
a_DXF_streams_nad27_edit
 10
533709
 20
3286833
 30
0.0
  0
VERTEX
  8
a_DXF_streams_nad27_edit
 10
533728
 20
3286881
 30
0.0
  0
VERTEX
  8
a_DXF_streams_nad27_edit
 10
533729
 20
3286892
 30
0.0
  0
VERTEX
  8
a_DXF_streams_nad27_edit
 10
533705
 20
3287066
 30
0.0
  0
VERTEX
  8
a_DXF_streams_nad27_edit
 10
533689
 20
3287215
 30
0.0
  0
VERTEX
  8
a_DXF_streams_nad27_edit
 10
533696
 20
3287415
 30
0.0
  0
SEQEND
  8
a_DXF_streams_nad27_edit
  0
POLYLINE
  8
a_DXF_streams_nad27_edit
 66
1
 40
47.9999845
 41
47.9999845
 62
5
 10
541678
 20
3287266
 30
0.0
  0
VERTEX
  8
a_DXF_streams_nad27_edit
 10
541678
 20
3287266
 30
0.0
  0
VERTEX
  8
a_DXF_streams_nad27_edit
 10
541780
 20
3287242
 30
0.0
  0
VERTEX
  8
a_DXF_streams_nad27_edit
 10
541823
 20
3287203
 30
0.0
  0
VERTEX
  8
a_DXF_streams_nad27_edit
 10
541837
 20
3287144
 30
0.0
  0
VERTEX
  8
a_DXF_streams_nad27_edit
 10
541847
 20
3287134
 30
0.0
  0
VERTEX
  8
a_DXF_streams_nad27_edit
 10
541878
 20
3287120
 30
0.0
  0
VERTEX
  8
a_DXF_streams_nad27_edit
 10
541938
 20
3287107
 30
0.0
  0
VERTEX
  8
a_DXF_streams_nad27_edit
 10
541975
 20
3287106
 30
0.0
  0
VERTEX
  8
a_DXF_streams_nad27_edit
 10
542089
 20
3287116
 30
0.0
  0
VERTEX
  8
a_DXF_streams_nad27_edit
 10
542139
 20
3287110
 30
0.0
  0
VERTEX
  8
a_DXF_streams_nad27_edit
 10
542188
 20
3287099
 30
0.0
  0
VERTEX
  8
a_DXF_streams_nad27_edit
 10
542219
 20
3287080
 30
0.0
  0
VERTEX
  8
a_DXF_streams_nad27_edit
 10
542237
 20
3287074
 30
0.0
  0
VERTEX
  8
a_DXF_streams_nad27_edit
 10
542301
 20
3287101
 30
0.0
  0
VERTEX
  8
a_DXF_streams_nad27_edit
 10
542348
 20
3287116
 30
0.0
  0
VERTEX
  8
a_DXF_streams_nad27_edit
 10
542395
 20
3287130
 30
0.0
  0
VERTEX
  8
a_DXF_streams_nad27_edit
 10
542430
 20
3287135
 30
0.0
  0
VERTEX
  8
a_DXF_streams_nad27_edit
 10
542456
 20
3287136
 30
0.0
  0
VERTEX
  8
a_DXF_streams_nad27_edit
 10
542495
 20
3287132
 30
0.0
  0
VERTEX
  8
a_DXF_streams_nad27_edit
 10
542533
 20
3287123
 30
0.0
  0
VERTEX
  8
a_DXF_streams_nad27_edit
 10
542632
 20
3287084
 30
0.0
  0
VERTEX
  8
a_DXF_streams_nad27_edit
 10
542717
 20
3287061
 30
0.0
  0
VERTEX
  8
a_DXF_streams_nad27_edit
 10
542775
 20
3287041
 30
0.0
  0
VERTEX
  8
a_DXF_streams_nad27_edit
 10
542803
 20
3287036
 30
0.0
  0
VERTEX
  8
a_DXF_streams_nad27_edit
 10
542818
 20
3287041
 30
0.0
  0
VERTEX
  8
a_DXF_streams_nad27_edit
 10
542862
 20
3287065
 30
0.0
  0
VERTEX
  8
a_DXF_streams_nad27_edit
 10
543008
 20
3287098
 30
0.0
  0
VERTEX
  8
a_DXF_streams_nad27_edit
 10
543098
 20
3287111
 30
0.0
  0
VERTEX
  8
a_DXF_streams_nad27_edit
 10
543116
 20
3287120
 30
0.0
  0
VERTEX
  8
a_DXF_streams_nad27_edit
 10
543143
 20
3287147
 30
0.0
  0
VERTEX
  8
a_DXF_streams_nad27_edit
 10
543156
 20
3287166
 30
0.0
  0
VERTEX
  8
a_DXF_streams_nad27_edit
 10
543188
 20
3287236
 30
0.0
  0
VERTEX
  8
a_DXF_streams_nad27_edit
 10
543214
 20
3287282
 30
0.0
  0
VERTEX
  8
a_DXF_streams_nad27_edit
 10
543230
 20
3287302
 30
0.0
  0
VERTEX
  8
a_DXF_streams_nad27_edit
 10
543251
 20
3287317
 30
0.0
  0
VERTEX
  8
a_DXF_streams_nad27_edit
 10
543309
 20
3287334
 30
0.0
  0
VERTEX
  8
a_DXF_streams_nad27_edit
 10
543580
 20
3287361
 30
0.0
  0
VERTEX
  8
a_DXF_streams_nad27_edit
 10
543659
 20
3287387
 30
0.0
  0
VERTEX
  8
a_DXF_streams_nad27_edit
 10
543708
 20
3287426
 30
0.0
  0
VERTEX
  8
a_DXF_streams_nad27_edit
 10
543721
 20
3287433
 30
0.0
  0
VERTEX
  8
a_DXF_streams_nad27_edit
 10
543784
 20
3287446
 30
0.0
  0
VERTEX
  8
a_DXF_streams_nad27_edit
 10
543821
 20
3287448
 30
0.0
  0
VERTEX
  8
a_DXF_streams_nad27_edit
 10
543913
 20
3287442
 30
0.0
  0
SEQEND
  8
a_DXF_streams_nad27_edit
  0
POLYLINE
  8
a_DXF_streams_nad27_edit
 66
1
 40
47.9999845
 41
47.9999845
 62
5
 10
543913
 20
3287442
 30
0.0
  0
VERTEX
  8
a_DXF_streams_nad27_edit
 10
543913
 20
3287442
 30
0.0
  0
VERTEX
  8
a_DXF_streams_nad27_edit
 10
543946
 20
3287440
 30
0.0
  0
VERTEX
  8
a_DXF_streams_nad27_edit
 10
543982
 20
3287442
 30
0.0
  0
VERTEX
  8
a_DXF_streams_nad27_edit
 10
544090
 20
3287455
 30
0.0
  0
VERTEX
  8
a_DXF_streams_nad27_edit
 10
544139
 20
3287444
 30
0.0
  0
VERTEX
  8
a_DXF_streams_nad27_edit
 10
544198
 20
3287410
 30
0.0
  0
VERTEX
  8
a_DXF_streams_nad27_edit
 10
544226
 20
3287386
 30
0.0
  0
VERTEX
  8
a_DXF_streams_nad27_edit
 10
544293
 20
3287306
 30
0.0
  0
VERTEX
  8
a_DXF_streams_nad27_edit
 10
544315
 20
3287267
 30
0.0
  0
VERTEX
  8
a_DXF_streams_nad27_edit
 10
544334
 20
3287215
 30
0.0
  0
VERTEX
  8
a_DXF_streams_nad27_edit
 10
544329
 20
3287158
 30
0.0
  0
VERTEX
  8
a_DXF_streams_nad27_edit
 10
544333
 20
3287125
 30
0.0
  0
VERTEX
  8
a_DXF_streams_nad27_edit
 10
544342
 20
3287106
 30
0.0
  0
VERTEX
  8
a_DXF_streams_nad27_edit
 10
544384
 20
3287058
 30
0.0
  0
VERTEX
  8
a_DXF_streams_nad27_edit
 10
544434
 20
3287027
 30
0.0
  0
VERTEX
  8
a_DXF_streams_nad27_edit
 10
544536
 20
3286992
 30
0.0
  0
VERTEX
  8
a_DXF_streams_nad27_edit
 10
544605
 20
3286981
 30
0.0
  0
VERTEX
  8
a_DXF_streams_nad27_edit
 10
544704
 20
3286989
 30
0.0
  0
VERTEX
  8
a_DXF_streams_nad27_edit
 10
544781
 20
3287001
 30
0.0
  0
VERTEX
  8
a_DXF_streams_nad27_edit
 10
544865
 20
3287020
 30
0.0
  0
VERTEX
  8
a_DXF_streams_nad27_edit
 10
544884
 20
3287029
 30
0.0
  0
VERTEX
  8
a_DXF_streams_nad27_edit
 10
544937
 20
3287066
 30
0.0
  0
VERTEX
  8
a_DXF_streams_nad27_edit
 10
544985
 20
3287089
 30
0.0
  0
SEQEND
  8
a_DXF_streams_nad27_edit
  0
POLYLINE
  8
a_DXF_streams_nad27_edit
 66
1
 40
47.9999845
 41
47.9999845
 62
5
 10
546217
 20
3287226
 30
0.0
  0
VERTEX
  8
a_DXF_streams_nad27_edit
 10
546217
 20
3287226
 30
0.0
  0
VERTEX
  8
a_DXF_streams_nad27_edit
 10
546297
 20
3287280
 30
0.0
  0
VERTEX
  8
a_DXF_streams_nad27_edit
 10
546313
 20
3287296
 30
0.0
  0
VERTEX
  8
a_DXF_streams_nad27_edit
 10
546405
 20
3287422
 30
0.0
  0
VERTEX
  8
a_DXF_streams_nad27_edit
 10
546416
 20
3287449
 30
0.0
  0
VERTEX
  8
a_DXF_streams_nad27_edit
 10
546456
 20
3287601
 30
0.0
  0
SEQEND
  8
a_DXF_streams_nad27_edit
  0
POLYLINE
  8
a_DXF_streams_nad27_edit
 66
1
 40
47.9999845
 41
47.9999845
 62
5
 10
537162
 20
3286459
 30
0.0
  0
VERTEX
  8
a_DXF_streams_nad27_edit
 10
537162
 20
3286459
 30
0.0
  0
VERTEX
  8
a_DXF_streams_nad27_edit
 10
537092
 20
3286633
 30
0.0
  0
VERTEX
  8
a_DXF_streams_nad27_edit
 10
537087
 20
3286656
 30
0.0
  0
VERTEX
  8
a_DXF_streams_nad27_edit
 10
537083
 20
3286728
 30
0.0
  0
VERTEX
  8
a_DXF_streams_nad27_edit
 10
537034
 20
3286944
 30
0.0
  0
VERTEX
  8
a_DXF_streams_nad27_edit
 10
537017
 20
3287003
 30
0.0
  0
VERTEX
  8
a_DXF_streams_nad27_edit
 10
537014
 20
3287026
 30
0.0
  0
VERTEX
  8
a_DXF_streams_nad27_edit
 10
537014
 20
3287096
 30
0.0
  0
VERTEX
  8
a_DXF_streams_nad27_edit
 10
537051
 20
3287375
 30
0.0
  0
VERTEX
  8
a_DXF_streams_nad27_edit
 10
537054
 20
3287427
 30
0.0
  0
VERTEX
  8
a_DXF_streams_nad27_edit
 10
537053
 20
3287461
 30
0.0
  0
VERTEX
  8
a_DXF_streams_nad27_edit
 10
537047
 20
3287497
 30
0.0
  0
VERTEX
  8
a_DXF_streams_nad27_edit
 10
537035
 20
3287532
 30
0.0
  0
VERTEX
  8
a_DXF_streams_nad27_edit
 10
537007
 20
3287585
 30
0.0
  0
VERTEX
  8
a_DXF_streams_nad27_edit
 10
536945
 20
3287672
 30
0.0
  0
VERTEX
  8
a_DXF_streams_nad27_edit
 10
536932
 20
3287686
 30
0.0
  0
VERTEX
  8
a_DXF_streams_nad27_edit
 10
536885
 20
3287718
 30
0.0
  0
VERTEX
  8
a_DXF_streams_nad27_edit
 10
536860
 20
3287747
 30
0.0
  0
SEQEND
  8
a_DXF_streams_nad27_edit
  0
POLYLINE
  8
a_DXF_streams_nad27_edit
 66
1
 40
47.9999845
 41
47.9999845
 62
5
 10
546456
 20
3287601
 30
0.0
  0
VERTEX
  8
a_DXF_streams_nad27_edit
 10
546456
 20
3287601
 30
0.0
  0
VERTEX
  8
a_DXF_streams_nad27_edit
 10
546470
 20
3287641
 30
0.0
  0
VERTEX
  8
a_DXF_streams_nad27_edit
 10
546491
 20
3287660
 30
0.0
  0
VERTEX
  8
a_DXF_streams_nad27_edit
 10
546554
 20
3287681
 30
0.0
  0
VERTEX
  8
a_DXF_streams_nad27_edit
 10
546592
 20
3287688
 30
0.0
  0
VERTEX
  8
a_DXF_streams_nad27_edit
 10
546629
 20
3287690
 30
0.0
  0
VERTEX
  8
a_DXF_streams_nad27_edit
 10
546694
 20
3287678
 30
0.0
  0
VERTEX
  8
a_DXF_streams_nad27_edit
 10
546709
 20
3287679
 30
0.0
  0
VERTEX
  8
a_DXF_streams_nad27_edit
 10
546839
 20
3287717
 30
0.0
  0
VERTEX
  8
a_DXF_streams_nad27_edit
 10
546970
 20
3287750
 30
0.0
  0
VERTEX
  8
a_DXF_streams_nad27_edit
 10
547037
 20
3287763
 30
0.0
  0
SEQEND
  8
a_DXF_streams_nad27_edit
  0
POLYLINE
  8
a_DXF_streams_nad27_edit
 66
1
 40
47.9999845
 41
47.9999845
 62
5
 10
547037
 20
3287763
 30
0.0
  0
VERTEX
  8
a_DXF_streams_nad27_edit
 10
547037
 20
3287763
 30
0.0
  0
VERTEX
  8
a_DXF_streams_nad27_edit
 10
547059
 20
3287771
 30
0.0
  0
VERTEX
  8
a_DXF_streams_nad27_edit
 10
547079
 20
3287784
 30
0.0
  0
VERTEX
  8
a_DXF_streams_nad27_edit
 10
547102
 20
3287810
 30
0.0
  0
VERTEX
  8
a_DXF_streams_nad27_edit
 10
547112
 20
3287830
 30
0.0
  0
VERTEX
  8
a_DXF_streams_nad27_edit
 10
547120
 20
3287854
 30
0.0
  0
VERTEX
  8
a_DXF_streams_nad27_edit
 10
547127
 20
3287913
 30
0.0
  0
VERTEX
  8
a_DXF_streams_nad27_edit
 10
547116
 20
3288043
 30
0.0
  0
VERTEX
  8
a_DXF_streams_nad27_edit
 10
547117
 20
3288057
 30
0.0
  0
VERTEX
  8
a_DXF_streams_nad27_edit
 10
547147
 20
3288067
 30
0.0
  0
SEQEND
  8
a_DXF_streams_nad27_edit
  0
POLYLINE
  8
a_DXF_streams_nad27_edit
 66
1
 40
47.9999845
 41
47.9999845
 62
5
 10
547876
 20
3288308
 30
0.0
  0
VERTEX
  8
a_DXF_streams_nad27_edit
 10
547876
 20
3288308
 30
0.0
  0
VERTEX
  8
a_DXF_streams_nad27_edit
 10
547942
 20
3288287
 30
0.0
  0
VERTEX
  8
a_DXF_streams_nad27_edit
 10
547992
 20
3288266
 30
0.0
  0
VERTEX
  8
a_DXF_streams_nad27_edit
 10
548082
 20
3288219
 30
0.0
  0
VERTEX
  8
a_DXF_streams_nad27_edit
 10
548268
 20
3288157
 30
0.0
  0
VERTEX
  8
a_DXF_streams_nad27_edit
 10
548309
 20
3288148
 30
0.0
  0
VERTEX
  8
a_DXF_streams_nad27_edit
 10
548351
 20
3288147
 30
0.0
  0
VERTEX
  8
a_DXF_streams_nad27_edit
 10
548399
 20
3288152
 30
0.0
  0
VERTEX
  8
a_DXF_streams_nad27_edit
 10
548547
 20
3288223
 30
0.0
  0
SEQEND
  8
a_DXF_streams_nad27_edit
  0
POLYLINE
  8
a_DXF_streams_nad27_edit
 66
1
 40
47.9999845
 41
47.9999845
 62
5
 10
547147
 20
3288067
 30
0.0
  0
VERTEX
  8
a_DXF_streams_nad27_edit
 10
547147
 20
3288067
 30
0.0
  0
VERTEX
  8
a_DXF_streams_nad27_edit
 10
547174
 20
3288066
 30
0.0
  0
VERTEX
  8
a_DXF_streams_nad27_edit
 10
547183
 20
3288069
 30
0.0
  0
VERTEX
  8
a_DXF_streams_nad27_edit
 10
547218
 20
3288106
 30
0.0
  0
VERTEX
  8
a_DXF_streams_nad27_edit
 10
547250
 20
3288163
 30
0.0
  0
VERTEX
  8
a_DXF_streams_nad27_edit
 10
547299
 20
3288270
 30
0.0
  0
VERTEX
  8
a_DXF_streams_nad27_edit
 10
547335
 20
3288319
 30
0.0
  0
VERTEX
  8
a_DXF_streams_nad27_edit
 10
547353
 20
3288336
 30
0.0
  0
VERTEX
  8
a_DXF_streams_nad27_edit
 10
547383
 20
3288356
 30
0.0
  0
VERTEX
  8
a_DXF_streams_nad27_edit
 10
547435
 20
3288376
 30
0.0
  0
VERTEX
  8
a_DXF_streams_nad27_edit
 10
547462
 20
3288377
 30
0.0
  0
VERTEX
  8
a_DXF_streams_nad27_edit
 10
547489
 20
3288374
 30
0.0
  0
VERTEX
  8
a_DXF_streams_nad27_edit
 10
547614
 20
3288336
 30
0.0
  0
VERTEX
  8
a_DXF_streams_nad27_edit
 10
547801
 20
3288323
 30
0.0
  0
VERTEX
  8
a_DXF_streams_nad27_edit
 10
547876
 20
3288308
 30
0.0
  0
SEQEND
  8
a_DXF_streams_nad27_edit
  0
POLYLINE
  8
a_DXF_streams_nad27_edit
 66
1
 40
47.9999845
 41
47.9999845
 62
5
 10
536860
 20
3287747
 30
0.0
  0
VERTEX
  8
a_DXF_streams_nad27_edit
 10
536860
 20
3287747
 30
0.0
  0
VERTEX
  8
a_DXF_streams_nad27_edit
 10
536832
 20
3287845
 30
0.0
  0
VERTEX
  8
a_DXF_streams_nad27_edit
 10
536727
 20
3288070
 30
0.0
  0
VERTEX
  8
a_DXF_streams_nad27_edit
 10
536665
 20
3288187
 30
0.0
  0
VERTEX
  8
a_DXF_streams_nad27_edit
 10
536624
 20
3288243
 30
0.0
  0
VERTEX
  8
a_DXF_streams_nad27_edit
 10
536597
 20
3288270
 30
0.0
  0
VERTEX
  8
a_DXF_streams_nad27_edit
 10
536583
 20
3288278
 30
0.0
  0
VERTEX
  8
a_DXF_streams_nad27_edit
 10
536509
 20
3288283
 30
0.0
  0
VERTEX
  8
a_DXF_streams_nad27_edit
 10
536450
 20
3288322
 30
0.0
  0
VERTEX
  8
a_DXF_streams_nad27_edit
 10
536404
 20
3288361
 30
0.0
  0
VERTEX
  8
a_DXF_streams_nad27_edit
 10
536340
 20
3288431
 30
0.0
  0
VERTEX
  8
a_DXF_streams_nad27_edit
 10
536296
 20
3288459
 30
0.0
  0
VERTEX
  8
a_DXF_streams_nad27_edit
 10
536169
 20
3288524
 30
0.0
  0
VERTEX
  8
a_DXF_streams_nad27_edit
 10
536125
 20
3288533
 30
0.0
  0
VERTEX
  8
a_DXF_streams_nad27_edit
 10
536081
 20
3288530
 30
0.0
  0
VERTEX
  8
a_DXF_streams_nad27_edit
 10
536037
 20
3288521
 30
0.0
  0
VERTEX
  8
a_DXF_streams_nad27_edit
 10
535822
 20
3288461
 30
0.0
  0
VERTEX
  8
a_DXF_streams_nad27_edit
 10
535488
 20
3288325
 30
0.0
  0
SEQEND
  8
a_DXF_streams_nad27_edit
  0
POLYLINE
  8
a_DXF_streams_nad27_edit
 66
1
 40
47.9999845
 41
47.9999845
 62
5
 10
548547
 20
3288223
 30
0.0
  0
VERTEX
  8
a_DXF_streams_nad27_edit
 10
548547
 20
3288223
 30
0.0
  0
VERTEX
  8
a_DXF_streams_nad27_edit
 10
548586
 20
3288239
 30
0.0
  0
VERTEX
  8
a_DXF_streams_nad27_edit
 10
548623
 20
3288237
 30
0.0
  0
VERTEX
  8
a_DXF_streams_nad27_edit
 10
548693
 20
3288218
 30
0.0
  0
VERTEX
  8
a_DXF_streams_nad27_edit
 10
548789
 20
3288183
 30
0.0
  0
VERTEX
  8
a_DXF_streams_nad27_edit
 10
548811
 20
3288180
 30
0.0
  0
VERTEX
  8
a_DXF_streams_nad27_edit
 10
548844
 20
3288189
 30
0.0
  0
VERTEX
  8
a_DXF_streams_nad27_edit
 10
548908
 20
3288217
 30
0.0
  0
VERTEX
  8
a_DXF_streams_nad27_edit
 10
548982
 20
3288230
 30
0.0
  0
VERTEX
  8
a_DXF_streams_nad27_edit
 10
549049
 20
3288249
 30
0.0
  0
VERTEX
  8
a_DXF_streams_nad27_edit
 10
549082
 20
3288263
 30
0.0
  0
VERTEX
  8
a_DXF_streams_nad27_edit
 10
549105
 20
3288274
 30
0.0
  0
VERTEX
  8
a_DXF_streams_nad27_edit
 10
549127
 20
3288293
 30
0.0
  0
VERTEX
  8
a_DXF_streams_nad27_edit
 10
549135
 20
3288308
 30
0.0
  0
VERTEX
  8
a_DXF_streams_nad27_edit
 10
549138
 20
3288324
 30
0.0
  0
VERTEX
  8
a_DXF_streams_nad27_edit
 10
549132
 20
3288355
 30
0.0
  0
VERTEX
  8
a_DXF_streams_nad27_edit
 10
549114
 20
3288402
 30
0.0
  0
VERTEX
  8
a_DXF_streams_nad27_edit
 10
549053
 20
3288552
 30
0.0
  0
VERTEX
  8
a_DXF_streams_nad27_edit
 10
549052
 20
3288566
 30
0.0
  0
VERTEX
  8
a_DXF_streams_nad27_edit
 10
549055
 20
3288578
 30
0.0
  0
VERTEX
  8
a_DXF_streams_nad27_edit
 10
549074
 20
3288604
 30
0.0
  0
VERTEX
  8
a_DXF_streams_nad27_edit
 10
549154
 20
3288663
 30
0.0
  0
VERTEX
  8
a_DXF_streams_nad27_edit
 10
549190
 20
3288683
 30
0.0
  0
VERTEX
  8
a_DXF_streams_nad27_edit
 10
549217
 20
3288694
 30
0.0
  0
VERTEX
  8
a_DXF_streams_nad27_edit
 10
549259
 20
3288704
 30
0.0
  0
VERTEX
  8
a_DXF_streams_nad27_edit
 10
549301
 20
3288708
 30
0.0
  0
VERTEX
  8
a_DXF_streams_nad27_edit
 10
549359
 20
3288704
 30
0.0
  0
VERTEX
  8
a_DXF_streams_nad27_edit
 10
549433
 20
3288683
 30
0.0
  0
VERTEX
  8
a_DXF_streams_nad27_edit
 10
549494
 20
3288649
 30
0.0
  0
SEQEND
  8
a_DXF_streams_nad27_edit
  0
POLYLINE
  8
a_DXF_streams_nad27_edit
 66
1
 40
47.9999845
 41
47.9999845
 62
5
 10
549494
 20
3289384
 30
0.0
  0
VERTEX
  8
a_DXF_streams_nad27_edit
 10
549494
 20
3289384
 30
0.0
  0
VERTEX
  8
a_DXF_streams_nad27_edit
 10
549297
 20
3289341
 30
0.0
  0
VERTEX
  8
a_DXF_streams_nad27_edit
 10
549274
 20
3289343
 30
0.0
  0
VERTEX
  8
a_DXF_streams_nad27_edit
 10
549225
 20
3289363
 30
0.0
  0
VERTEX
  8
a_DXF_streams_nad27_edit
 10
549164
 20
3289401
 30
0.0
  0
VERTEX
  8
a_DXF_streams_nad27_edit
 10
549155
 20
3289402
 30
0.0
  0
VERTEX
  8
a_DXF_streams_nad27_edit
 10
549112
 20
3289441
 30
0.0
  0
VERTEX
  8
a_DXF_streams_nad27_edit
 10
549105
 20
3289446
 30
0.0
  0
SEQEND
  8
a_DXF_streams_nad27_edit
  0
POLYLINE
  8
a_DXF_streams_nad27_edit
 66
1
 40
47.9999845
 41
47.9999845
 62
5
 10
549494
 20
3289384
 30
0.0
  0
VERTEX
  8
a_DXF_streams_nad27_edit
 10
549494
 20
3289384
 30
0.0
  0
VERTEX
  8
a_DXF_streams_nad27_edit
 10
549297
 20
3289341
 30
0.0
  0
VERTEX
  8
a_DXF_streams_nad27_edit
 10
549274
 20
3289343
 30
0.0
  0
VERTEX
  8
a_DXF_streams_nad27_edit
 10
549225
 20
3289363
 30
0.0
  0
VERTEX
  8
a_DXF_streams_nad27_edit
 10
549164
 20
3289401
 30
0.0
  0
VERTEX
  8
a_DXF_streams_nad27_edit
 10
549155
 20
3289402
 30
0.0
  0
VERTEX
  8
a_DXF_streams_nad27_edit
 10
549112
 20
3289441
 30
0.0
  0
VERTEX
  8
a_DXF_streams_nad27_edit
 10
549105
 20
3289446
 30
0.0
  0
SEQEND
  8
a_DXF_streams_nad27_edit
  0
POLYLINE
  8
a_DXF_streams_nad27_edit
 66
1
 40
47.9999845
 41
47.9999845
 62
5
 10
549093.462
 20
3289515.88
 30
0.0
  0
VERTEX
  8
a_DXF_streams_nad27_edit
 10
549093.462
 20
3289515.88
 30
0.0
  0
VERTEX
  8
a_DXF_streams_nad27_edit
 10
549064.142
 20
3289536.1
 30
0.0
  0
VERTEX
  8
a_DXF_streams_nad27_edit
 10
548844.745
 20
3289620.02
 30
0.0
  0
VERTEX
  8
a_DXF_streams_nad27_edit
 10
548747.684
 20
3289658.44
 30
0.0
  0
VERTEX
  8
a_DXF_streams_nad27_edit
 10
548704.209
 20
3289668.55
 30
0.0
  0
VERTEX
  8
a_DXF_streams_nad27_edit
 10
548526.265
 20
3289685.73
 30
0.0
  0
SEQEND
  8
a_DXF_streams_nad27_edit
  0
POLYLINE
  8
a_DXF_streams_nad27_edit
 66
1
 40
47.9999845
 41
47.9999845
 62
5
 10
549087
 20
3289518
 30
0.0
  0
VERTEX
  8
a_DXF_streams_nad27_edit
 10
549087
 20
3289518
 30
0.0
  0
VERTEX
  8
a_DXF_streams_nad27_edit
 10
549058
 20
3289538
 30
0.0
  0
VERTEX
  8
a_DXF_streams_nad27_edit
 10
548841
 20
3289621
 30
0.0
  0
VERTEX
  8
a_DXF_streams_nad27_edit
 10
548745
 20
3289659
 30
0.0
  0
VERTEX
  8
a_DXF_streams_nad27_edit
 10
548702
 20
3289669
 30
0.0
  0
VERTEX
  8
a_DXF_streams_nad27_edit
 10
548526
 20
3289686
 30
0.0
  0
SEQEND
  8
a_DXF_streams_nad27_edit
  0
POLYLINE
  8
a_DXF_streams_nad27_edit
 66
1
 40
47.9999845
 41
47.9999845
 62
5
 10
548526
 20
3289686
 30
0.0
  0
VERTEX
  8
a_DXF_streams_nad27_edit
 10
548526
 20
3289686
 30
0.0
  0
VERTEX
  8
a_DXF_streams_nad27_edit
 10
548496
 20
3289712
 30
0.0
  0
SEQEND
  8
a_DXF_streams_nad27_edit
  0
POLYLINE
  8
a_DXF_streams_nad27_edit
 66
1
 40
47.9999845
 41
47.9999845
 62
5
 10
537532
 20
3289739
 30
0.0
  0
VERTEX
  8
a_DXF_streams_nad27_edit
 10
537532
 20
3289739
 30
0.0
  0
VERTEX
  8
a_DXF_streams_nad27_edit
 10
537542
 20
3289650
 30
0.0
  0
VERTEX
  8
a_DXF_streams_nad27_edit
 10
537538
 20
3289627
 30
0.0
  0
VERTEX
  8
a_DXF_streams_nad27_edit
 10
537518
 20
3289592
 30
0.0
  0
VERTEX
  8
a_DXF_streams_nad27_edit
 10
537491
 20
3289568
 30
0.0
  0
VERTEX
  8
a_DXF_streams_nad27_edit
 10
537461
 20
3289551
 30
0.0
  0
VERTEX
  8
a_DXF_streams_nad27_edit
 10
537380
 20
3289516
 30
0.0
  0
VERTEX
  8
a_DXF_streams_nad27_edit
 10
537318
 20
3289480
 30
0.0
  0
VERTEX
  8
a_DXF_streams_nad27_edit
 10
537228
 20
3289558
 30
0.0
  0
VERTEX
  8
a_DXF_streams_nad27_edit
 10
537162
 20
3289606
 30
0.0
  0
VERTEX
  8
a_DXF_streams_nad27_edit
 10
537060
 20
3289713
 30
0.0
  0
SEQEND
  8
a_DXF_streams_nad27_edit
  0
POLYLINE
  8
a_DXF_streams_nad27_edit
 66
1
 40
47.9999845
 41
47.9999845
 62
5
 10
537532
 20
3289739
 30
0.0
  0
VERTEX
  8
a_DXF_streams_nad27_edit
 10
537532
 20
3289739
 30
0.0
  0
VERTEX
  8
a_DXF_streams_nad27_edit
 10
537542
 20
3289650
 30
0.0
  0
VERTEX
  8
a_DXF_streams_nad27_edit
 10
537538
 20
3289627
 30
0.0
  0
VERTEX
  8
a_DXF_streams_nad27_edit
 10
537518
 20
3289592
 30
0.0
  0
VERTEX
  8
a_DXF_streams_nad27_edit
 10
537491
 20
3289568
 30
0.0
  0
VERTEX
  8
a_DXF_streams_nad27_edit
 10
537461
 20
3289551
 30
0.0
  0
VERTEX
  8
a_DXF_streams_nad27_edit
 10
537380
 20
3289516
 30
0.0
  0
VERTEX
  8
a_DXF_streams_nad27_edit
 10
537318
 20
3289480
 30
0.0
  0
VERTEX
  8
a_DXF_streams_nad27_edit
 10
537228
 20
3289558
 30
0.0
  0
VERTEX
  8
a_DXF_streams_nad27_edit
 10
537162
 20
3289606
 30
0.0
  0
VERTEX
  8
a_DXF_streams_nad27_edit
 10
537060
 20
3289713
 30
0.0
  0
SEQEND
  8
a_DXF_streams_nad27_edit
  0
POLYLINE
  8
a_DXF_streams_nad27_edit
 66
1
 40
47.9999845
 41
47.9999845
 62
5
 10
548526
 20
3289686
 30
0.0
  0
VERTEX
  8
a_DXF_streams_nad27_edit
 10
548526
 20
3289686
 30
0.0
  0
VERTEX
  8
a_DXF_streams_nad27_edit
 10
548468
 20
3289691
 30
0.0
  0
VERTEX
  8
a_DXF_streams_nad27_edit
 10
548401
 20
3289667
 30
0.0
  0
VERTEX
  8
a_DXF_streams_nad27_edit
 10
548306
 20
3289619
 30
0.0
  0
VERTEX
  8
a_DXF_streams_nad27_edit
 10
548188
 20
3289632
 30
0.0
  0
VERTEX
  8
a_DXF_streams_nad27_edit
 10
548148
 20
3289614
 30
0.0
  0
VERTEX
  8
a_DXF_streams_nad27_edit
 10
548111
 20
3289616
 30
0.0
  0
VERTEX
  8
a_DXF_streams_nad27_edit
 10
548074
 20
3289624
 30
0.0
  0
VERTEX
  8
a_DXF_streams_nad27_edit
 10
548043
 20
3289638
 30
0.0
  0
VERTEX
  8
a_DXF_streams_nad27_edit
 10
548004
 20
3289638
 30
0.0
  0
VERTEX
  8
a_DXF_streams_nad27_edit
 10
547972
 20
3289646
 30
0.0
  0
VERTEX
  8
a_DXF_streams_nad27_edit
 10
547875
 20
3289719
 30
0.0
  0
VERTEX
  8
a_DXF_streams_nad27_edit
 10
547791
 20
3289790
 30
0.0
  0
VERTEX
  8
a_DXF_streams_nad27_edit
 10
547724
 20
3289796
 30
0.0
  0
VERTEX
  8
a_DXF_streams_nad27_edit
 10
547682
 20
3289791
 30
0.0
  0
VERTEX
  8
a_DXF_streams_nad27_edit
 10
547656
 20
3289797
 30
0.0
  0
VERTEX
  8
a_DXF_streams_nad27_edit
 10
547642
 20
3289817
 30
0.0
  0
SEQEND
  8
a_DXF_streams_nad27_edit
  0
POLYLINE
  8
a_DXF_streams_nad27_edit
 66
1
 40
47.9999845
 41
47.9999845
 62
5
 10
548526
 20
3289686
 30
0.0
  0
VERTEX
  8
a_DXF_streams_nad27_edit
 10
548526
 20
3289686
 30
0.0
  0
VERTEX
  8
a_DXF_streams_nad27_edit
 10
548468
 20
3289691
 30
0.0
  0
VERTEX
  8
a_DXF_streams_nad27_edit
 10
548401
 20
3289667
 30
0.0
  0
VERTEX
  8
a_DXF_streams_nad27_edit
 10
548306
 20
3289619
 30
0.0
  0
VERTEX
  8
a_DXF_streams_nad27_edit
 10
548188
 20
3289632
 30
0.0
  0
VERTEX
  8
a_DXF_streams_nad27_edit
 10
548148
 20
3289614
 30
0.0
  0
VERTEX
  8
a_DXF_streams_nad27_edit
 10
548111
 20
3289616
 30
0.0
  0
VERTEX
  8
a_DXF_streams_nad27_edit
 10
548074
 20
3289624
 30
0.0
  0
VERTEX
  8
a_DXF_streams_nad27_edit
 10
548043
 20
3289638
 30
0.0
  0
VERTEX
  8
a_DXF_streams_nad27_edit
 10
548004
 20
3289638
 30
0.0
  0
VERTEX
  8
a_DXF_streams_nad27_edit
 10
547972
 20
3289646
 30
0.0
  0
VERTEX
  8
a_DXF_streams_nad27_edit
 10
547875
 20
3289719
 30
0.0
  0
VERTEX
  8
a_DXF_streams_nad27_edit
 10
547791
 20
3289790
 30
0.0
  0
VERTEX
  8
a_DXF_streams_nad27_edit
 10
547724
 20
3289796
 30
0.0
  0
VERTEX
  8
a_DXF_streams_nad27_edit
 10
547682
 20
3289791
 30
0.0
  0
VERTEX
  8
a_DXF_streams_nad27_edit
 10
547656
 20
3289797
 30
0.0
  0
VERTEX
  8
a_DXF_streams_nad27_edit
 10
547642
 20
3289817
 30
0.0
  0
SEQEND
  8
a_DXF_streams_nad27_edit
  0
POLYLINE
  8
a_DXF_streams_nad27_edit
 66
1
 40
47.9999845
 41
47.9999845
 62
5
 10
538061
 20
3289807
 30
0.0
  0
VERTEX
  8
a_DXF_streams_nad27_edit
 10
538061
 20
3289807
 30
0.0
  0
VERTEX
  8
a_DXF_streams_nad27_edit
 10
538033
 20
3289827
 30
0.0
  0
VERTEX
  8
a_DXF_streams_nad27_edit
 10
538018
 20
3289824
 30
0.0
  0
VERTEX
  8
a_DXF_streams_nad27_edit
 10
537916
 20
3289821
 30
0.0
  0
VERTEX
  8
a_DXF_streams_nad27_edit
 10
537853
 20
3289814
 30
0.0
  0
VERTEX
  8
a_DXF_streams_nad27_edit
 10
537675
 20
3289777
 30
0.0
  0
VERTEX
  8
a_DXF_streams_nad27_edit
 10
537648
 20
3289785
 30
0.0
  0
VERTEX
  8
a_DXF_streams_nad27_edit
 10
537564
 20
3289785
 30
0.0
  0
VERTEX
  8
a_DXF_streams_nad27_edit
 10
537552
 20
3289782
 30
0.0
  0
VERTEX
  8
a_DXF_streams_nad27_edit
 10
537542
 20
3289773
 30
0.0
  0
VERTEX
  8
a_DXF_streams_nad27_edit
 10
537533
 20
3289756
 30
0.0
  0
VERTEX
  8
a_DXF_streams_nad27_edit
 10
537532
 20
3289739
 30
0.0
  0
SEQEND
  8
a_DXF_streams_nad27_edit
  0
POLYLINE
  8
a_DXF_streams_nad27_edit
 66
1
 40
47.9999845
 41
47.9999845
 62
5
 10
538061
 20
3289807
 30
0.0
  0
VERTEX
  8
a_DXF_streams_nad27_edit
 10
538061
 20
3289807
 30
0.0
  0
VERTEX
  8
a_DXF_streams_nad27_edit
 10
538033
 20
3289827
 30
0.0
  0
VERTEX
  8
a_DXF_streams_nad27_edit
 10
538018
 20
3289824
 30
0.0
  0
VERTEX
  8
a_DXF_streams_nad27_edit
 10
537916
 20
3289821
 30
0.0
  0
VERTEX
  8
a_DXF_streams_nad27_edit
 10
537853
 20
3289814
 30
0.0
  0
VERTEX
  8
a_DXF_streams_nad27_edit
 10
537675
 20
3289777
 30
0.0
  0
VERTEX
  8
a_DXF_streams_nad27_edit
 10
537648
 20
3289785
 30
0.0
  0
VERTEX
  8
a_DXF_streams_nad27_edit
 10
537564
 20
3289785
 30
0.0
  0
VERTEX
  8
a_DXF_streams_nad27_edit
 10
537552
 20
3289782
 30
0.0
  0
VERTEX
  8
a_DXF_streams_nad27_edit
 10
537542
 20
3289773
 30
0.0
  0
VERTEX
  8
a_DXF_streams_nad27_edit
 10
537533
 20
3289756
 30
0.0
  0
VERTEX
  8
a_DXF_streams_nad27_edit
 10
537532
 20
3289739
 30
0.0
  0
SEQEND
  8
a_DXF_streams_nad27_edit
  0
POLYLINE
  8
a_DXF_streams_nad27_edit
 66
1
 40
47.9999845
 41
47.9999845
 62
5
 10
547591
 20
3289889
 30
0.0
  0
VERTEX
  8
a_DXF_streams_nad27_edit
 10
547591
 20
3289889
 30
0.0
  0
VERTEX
  8
a_DXF_streams_nad27_edit
 10
547568
 20
3289900
 30
0.0
  0
VERTEX
  8
a_DXF_streams_nad27_edit
 10
547494
 20
3289912
 30
0.0
  0
VERTEX
  8
a_DXF_streams_nad27_edit
 10
547482
 20
3289937
 30
0.0
  0
SEQEND
  8
a_DXF_streams_nad27_edit
  0
POLYLINE
  8
a_DXF_streams_nad27_edit
 66
1
 40
47.9999845
 41
47.9999845
 62
5
 10
547591
 20
3289889
 30
0.0
  0
VERTEX
  8
a_DXF_streams_nad27_edit
 10
547591
 20
3289889
 30
0.0
  0
VERTEX
  8
a_DXF_streams_nad27_edit
 10
547568
 20
3289900
 30
0.0
  0
VERTEX
  8
a_DXF_streams_nad27_edit
 10
547494
 20
3289912
 30
0.0
  0
VERTEX
  8
a_DXF_streams_nad27_edit
 10
547482
 20
3289937
 30
0.0
  0
SEQEND
  8
a_DXF_streams_nad27_edit
  0
POLYLINE
  8
a_DXF_streams_nad27_edit
 66
1
 40
47.9999845
 41
47.9999845
 62
5
 10
534511
 20
3289833
 30
0.0
  0
VERTEX
  8
a_DXF_streams_nad27_edit
 10
534511
 20
3289833
 30
0.0
  0
VERTEX
  8
a_DXF_streams_nad27_edit
 10
534487
 20
3289848
 30
0.0
  0
VERTEX
  8
a_DXF_streams_nad27_edit
 10
534479
 20
3289849
 30
0.0
  0
VERTEX
  8
a_DXF_streams_nad27_edit
 10
534441
 20
3289879
 30
0.0
  0
VERTEX
  8
a_DXF_streams_nad27_edit
 10
534399
 20
3289919
 30
0.0
  0
VERTEX
  8
a_DXF_streams_nad27_edit
 10
534347
 20
3289974
 30
0.0
  0
SEQEND
  8
a_DXF_streams_nad27_edit
  0
POLYLINE
  8
a_DXF_streams_nad27_edit
 66
1
 40
47.9999845
 41
47.9999845
 62
5
 10
534511
 20
3289833
 30
0.0
  0
VERTEX
  8
a_DXF_streams_nad27_edit
 10
534511
 20
3289833
 30
0.0
  0
VERTEX
  8
a_DXF_streams_nad27_edit
 10
534487
 20
3289848
 30
0.0
  0
VERTEX
  8
a_DXF_streams_nad27_edit
 10
534479
 20
3289849
 30
0.0
  0
VERTEX
  8
a_DXF_streams_nad27_edit
 10
534441
 20
3289879
 30
0.0
  0
VERTEX
  8
a_DXF_streams_nad27_edit
 10
534399
 20
3289919
 30
0.0
  0
VERTEX
  8
a_DXF_streams_nad27_edit
 10
534347
 20
3289974
 30
0.0
  0
SEQEND
  8
a_DXF_streams_nad27_edit
  0
POLYLINE
  8
a_DXF_streams_nad27_edit
 66
1
 40
47.9999845
 41
47.9999845
 62
5
 10
535470
 20
3289978
 30
0.0
  0
VERTEX
  8
a_DXF_streams_nad27_edit
 10
535470
 20
3289978
 30
0.0
  0
VERTEX
  8
a_DXF_streams_nad27_edit
 10
535217
 20
3289895
 30
0.0
  0
VERTEX
  8
a_DXF_streams_nad27_edit
 10
534935
 20
3289855
 30
0.0
  0
VERTEX
  8
a_DXF_streams_nad27_edit
 10
534828
 20
3289812
 30
0.0
  0
VERTEX
  8
a_DXF_streams_nad27_edit
 10
534769
 20
3289798
 30
0.0
  0
VERTEX
  8
a_DXF_streams_nad27_edit
 10
534670
 20
3289791
 30
0.0
  0
VERTEX
  8
a_DXF_streams_nad27_edit
 10
534619
 20
3289794
 30
0.0
  0
VERTEX
  8
a_DXF_streams_nad27_edit
 10
534536
 20
3289816
 30
0.0
  0
VERTEX
  8
a_DXF_streams_nad27_edit
 10
534511
 20
3289833
 30
0.0
  0
SEQEND
  8
a_DXF_streams_nad27_edit
  0
POLYLINE
  8
a_DXF_streams_nad27_edit
 66
1
 40
47.9999845
 41
47.9999845
 62
5
 10
535470
 20
3289978
 30
0.0
  0
VERTEX
  8
a_DXF_streams_nad27_edit
 10
535470
 20
3289978
 30
0.0
  0
VERTEX
  8
a_DXF_streams_nad27_edit
 10
535217
 20
3289895
 30
0.0
  0
VERTEX
  8
a_DXF_streams_nad27_edit
 10
534935
 20
3289855
 30
0.0
  0
VERTEX
  8
a_DXF_streams_nad27_edit
 10
534828
 20
3289812
 30
0.0
  0
VERTEX
  8
a_DXF_streams_nad27_edit
 10
534769
 20
3289798
 30
0.0
  0
VERTEX
  8
a_DXF_streams_nad27_edit
 10
534670
 20
3289791
 30
0.0
  0
VERTEX
  8
a_DXF_streams_nad27_edit
 10
534619
 20
3289794
 30
0.0
  0
VERTEX
  8
a_DXF_streams_nad27_edit
 10
534536
 20
3289816
 30
0.0
  0
VERTEX
  8
a_DXF_streams_nad27_edit
 10
534511
 20
3289833
 30
0.0
  0
SEQEND
  8
a_DXF_streams_nad27_edit
  0
POLYLINE
  8
a_DXF_streams_nad27_edit
 66
1
 40
47.9999845
 41
47.9999845
 62
5
 10
540167
 20
3289974
 30
0.0
  0
VERTEX
  8
a_DXF_streams_nad27_edit
 10
540167
 20
3289974
 30
0.0
  0
VERTEX
  8
a_DXF_streams_nad27_edit
 10
540037
 20
3290050
 30
0.0
  0
VERTEX
  8
a_DXF_streams_nad27_edit
 10
539994
 20
3290088
 30
0.0
  0
SEQEND
  8
a_DXF_streams_nad27_edit
  0
POLYLINE
  8
a_DXF_streams_nad27_edit
 66
1
 40
47.9999845
 41
47.9999845
 62
5
 10
540167
 20
3289974
 30
0.0
  0
VERTEX
  8
a_DXF_streams_nad27_edit
 10
540167
 20
3289974
 30
0.0
  0
VERTEX
  8
a_DXF_streams_nad27_edit
 10
540037
 20
3290050
 30
0.0
  0
VERTEX
  8
a_DXF_streams_nad27_edit
 10
539994
 20
3290088
 30
0.0
  0
SEQEND
  8
a_DXF_streams_nad27_edit
  0
POLYLINE
  8
a_DXF_streams_nad27_edit
 66
1
 40
47.9999845
 41
47.9999845
 62
5
 10
535774
 20
3290147
 30
0.0
  0
VERTEX
  8
a_DXF_streams_nad27_edit
 10
535774
 20
3290147
 30
0.0
  0
VERTEX
  8
a_DXF_streams_nad27_edit
 10
535578
 20
3290020
 30
0.0
  0
VERTEX
  8
a_DXF_streams_nad27_edit
 10
535550
 20
3290006
 30
0.0
  0
VERTEX
  8
a_DXF_streams_nad27_edit
 10
535470
 20
3289978
 30
0.0
  0
SEQEND
  8
a_DXF_streams_nad27_edit
  0
POLYLINE
  8
a_DXF_streams_nad27_edit
 66
1
 40
47.9999845
 41
47.9999845
 62
5
 10
535774
 20
3290147
 30
0.0
  0
VERTEX
  8
a_DXF_streams_nad27_edit
 10
535774
 20
3290147
 30
0.0
  0
VERTEX
  8
a_DXF_streams_nad27_edit
 10
535578
 20
3290020
 30
0.0
  0
VERTEX
  8
a_DXF_streams_nad27_edit
 10
535550
 20
3290006
 30
0.0
  0
VERTEX
  8
a_DXF_streams_nad27_edit
 10
535470
 20
3289978
 30
0.0
  0
SEQEND
  8
a_DXF_streams_nad27_edit
  0
POLYLINE
  8
a_DXF_streams_nad27_edit
 66
1
 40
47.9999845
 41
47.9999845
 62
5
 10
540638
 20
3290148
 30
0.0
  0
VERTEX
  8
a_DXF_streams_nad27_edit
 10
540638
 20
3290148
 30
0.0
  0
VERTEX
  8
a_DXF_streams_nad27_edit
 10
540618
 20
3290149
 30
0.0
  0
VERTEX
  8
a_DXF_streams_nad27_edit
 10
540587
 20
3290141
 30
0.0
  0
VERTEX
  8
a_DXF_streams_nad27_edit
 10
540526
 20
3290114
 30
0.0
  0
VERTEX
  8
a_DXF_streams_nad27_edit
 10
540498
 20
3290096
 30
0.0
  0
VERTEX
  8
a_DXF_streams_nad27_edit
 10
540488
 20
3290088
 30
0.0
  0
VERTEX
  8
a_DXF_streams_nad27_edit
 10
540453
 20
3290033
 30
0.0
  0
VERTEX
  8
a_DXF_streams_nad27_edit
 10
540443
 20
3290009
 30
0.0
  0
VERTEX
  8
a_DXF_streams_nad27_edit
 10
540442
 20
3289994
 30
0.0
  0
VERTEX
  8
a_DXF_streams_nad27_edit
 10
540464
 20
3289954
 30
0.0
  0
VERTEX
  8
a_DXF_streams_nad27_edit
 10
540457
 20
3289946
 30
0.0
  0
VERTEX
  8
a_DXF_streams_nad27_edit
 10
540414
 20
3289926
 30
0.0
  0
VERTEX
  8
a_DXF_streams_nad27_edit
 10
540383
 20
3289917
 30
0.0
  0
VERTEX
  8
a_DXF_streams_nad27_edit
 10
540331
 20
3289911
 30
0.0
  0
VERTEX
  8
a_DXF_streams_nad27_edit
 10
540281
 20
3289916
 30
0.0
  0
VERTEX
  8
a_DXF_streams_nad27_edit
 10
540255
 20
3289924
 30
0.0
  0
VERTEX
  8
a_DXF_streams_nad27_edit
 10
540167
 20
3289974
 30
0.0
  0
SEQEND
  8
a_DXF_streams_nad27_edit
  0
POLYLINE
  8
a_DXF_streams_nad27_edit
 66
1
 40
47.9999845
 41
47.9999845
 62
5
 10
540638
 20
3290148
 30
0.0
  0
VERTEX
  8
a_DXF_streams_nad27_edit
 10
540638
 20
3290148
 30
0.0
  0
VERTEX
  8
a_DXF_streams_nad27_edit
 10
540618
 20
3290149
 30
0.0
  0
VERTEX
  8
a_DXF_streams_nad27_edit
 10
540587
 20
3290141
 30
0.0
  0
VERTEX
  8
a_DXF_streams_nad27_edit
 10
540526
 20
3290114
 30
0.0
  0
VERTEX
  8
a_DXF_streams_nad27_edit
 10
540498
 20
3290096
 30
0.0
  0
VERTEX
  8
a_DXF_streams_nad27_edit
 10
540488
 20
3290088
 30
0.0
  0
VERTEX
  8
a_DXF_streams_nad27_edit
 10
540453
 20
3290033
 30
0.0
  0
VERTEX
  8
a_DXF_streams_nad27_edit
 10
540443
 20
3290009
 30
0.0
  0
VERTEX
  8
a_DXF_streams_nad27_edit
 10
540442
 20
3289994
 30
0.0
  0
VERTEX
  8
a_DXF_streams_nad27_edit
 10
540464
 20
3289954
 30
0.0
  0
VERTEX
  8
a_DXF_streams_nad27_edit
 10
540457
 20
3289946
 30
0.0
  0
VERTEX
  8
a_DXF_streams_nad27_edit
 10
540414
 20
3289926
 30
0.0
  0
VERTEX
  8
a_DXF_streams_nad27_edit
 10
540383
 20
3289917
 30
0.0
  0
VERTEX
  8
a_DXF_streams_nad27_edit
 10
540331
 20
3289911
 30
0.0
  0
VERTEX
  8
a_DXF_streams_nad27_edit
 10
540281
 20
3289916
 30
0.0
  0
VERTEX
  8
a_DXF_streams_nad27_edit
 10
540255
 20
3289924
 30
0.0
  0
VERTEX
  8
a_DXF_streams_nad27_edit
 10
540167
 20
3289974
 30
0.0
  0
SEQEND
  8
a_DXF_streams_nad27_edit
  0
POLYLINE
  8
a_DXF_streams_nad27_edit
 66
1
 40
47.9999845
 41
47.9999845
 62
5
 10
547461
 20
3289949
 30
0.0
  0
VERTEX
  8
a_DXF_streams_nad27_edit
 10
547461
 20
3289949
 30
0.0
  0
VERTEX
  8
a_DXF_streams_nad27_edit
 10
547450
 20
3289961
 30
0.0
  0
VERTEX
  8
a_DXF_streams_nad27_edit
 10
547387
 20
3289977
 30
0.0
  0
VERTEX
  8
a_DXF_streams_nad27_edit
 10
547298
 20
3290009
 30
0.0
  0
VERTEX
  8
a_DXF_streams_nad27_edit
 10
547253
 20
3290020
 30
0.0
  0
VERTEX
  8
a_DXF_streams_nad27_edit
 10
547102
 20
3290104
 30
0.0
  0
VERTEX
  8
a_DXF_streams_nad27_edit
 10
547071
 20
3290115
 30
0.0
  0
VERTEX
  8
a_DXF_streams_nad27_edit
 10
547029
 20
3290120
 30
0.0
  0
VERTEX
  8
a_DXF_streams_nad27_edit
 10
546908
 20
3290155
 30
0.0
  0
SEQEND
  8
a_DXF_streams_nad27_edit
  0
POLYLINE
  8
a_DXF_streams_nad27_edit
 66
1
 40
47.9999845
 41
47.9999845
 62
5
 10
547461
 20
3289949
 30
0.0
  0
VERTEX
  8
a_DXF_streams_nad27_edit
 10
547461
 20
3289949
 30
0.0
  0
VERTEX
  8
a_DXF_streams_nad27_edit
 10
547450
 20
3289961
 30
0.0
  0
VERTEX
  8
a_DXF_streams_nad27_edit
 10
547387
 20
3289977
 30
0.0
  0
VERTEX
  8
a_DXF_streams_nad27_edit
 10
547298
 20
3290009
 30
0.0
  0
VERTEX
  8
a_DXF_streams_nad27_edit
 10
547253
 20
3290020
 30
0.0
  0
VERTEX
  8
a_DXF_streams_nad27_edit
 10
547102
 20
3290104
 30
0.0
  0
VERTEX
  8
a_DXF_streams_nad27_edit
 10
547071
 20
3290115
 30
0.0
  0
VERTEX
  8
a_DXF_streams_nad27_edit
 10
547029
 20
3290120
 30
0.0
  0
VERTEX
  8
a_DXF_streams_nad27_edit
 10
546908
 20
3290155
 30
0.0
  0
SEQEND
  8
a_DXF_streams_nad27_edit
  0
POLYLINE
  8
a_DXF_streams_nad27_edit
 66
1
 40
47.9999845
 41
47.9999845
 62
5
 10
535788
 20
3290156
 30
0.0
  0
VERTEX
  8
a_DXF_streams_nad27_edit
 10
535788
 20
3290156
 30
0.0
  0
VERTEX
  8
a_DXF_streams_nad27_edit
 10
535774
 20
3290147
 30
0.0
  0
SEQEND
  8
a_DXF_streams_nad27_edit
  0
POLYLINE
  8
a_DXF_streams_nad27_edit
 66
1
 40
47.9999845
 41
47.9999845
 62
5
 10
535788
 20
3290156
 30
0.0
  0
VERTEX
  8
a_DXF_streams_nad27_edit
 10
535788
 20
3290156
 30
0.0
  0
VERTEX
  8
a_DXF_streams_nad27_edit
 10
535774
 20
3290147
 30
0.0
  0
SEQEND
  8
a_DXF_streams_nad27_edit
  0
POLYLINE
  8
a_DXF_streams_nad27_edit
 66
1
 40
47.9999845
 41
47.9999845
 62
5
 10
535774
 20
3290147
 30
0.0
  0
VERTEX
  8
a_DXF_streams_nad27_edit
 10
535774
 20
3290147
 30
0.0
  0
VERTEX
  8
a_DXF_streams_nad27_edit
 10
535726
 20
3290162
 30
0.0
  0
SEQEND
  8
a_DXF_streams_nad27_edit
  0
POLYLINE
  8
a_DXF_streams_nad27_edit
 66
1
 40
47.9999845
 41
47.9999845
 62
5
 10
540778
 20
3290210
 30
0.0
  0
VERTEX
  8
a_DXF_streams_nad27_edit
 10
540778
 20
3290210
 30
0.0
  0
VERTEX
  8
a_DXF_streams_nad27_edit
 10
540757
 20
3290174
 30
0.0
  0
VERTEX
  8
a_DXF_streams_nad27_edit
 10
540729
 20
3290149
 30
0.0
  0
VERTEX
  8
a_DXF_streams_nad27_edit
 10
540712
 20
3290141
 30
0.0
  0
VERTEX
  8
a_DXF_streams_nad27_edit
 10
540700
 20
3290140
 30
0.0
  0
VERTEX
  8
a_DXF_streams_nad27_edit
 10
540638
 20
3290148
 30
0.0
  0
SEQEND
  8
a_DXF_streams_nad27_edit
  0
POLYLINE
  8
a_DXF_streams_nad27_edit
 66
1
 40
47.9999845
 41
47.9999845
 62
5
 10
540778
 20
3290210
 30
0.0
  0
VERTEX
  8
a_DXF_streams_nad27_edit
 10
540778
 20
3290210
 30
0.0
  0
VERTEX
  8
a_DXF_streams_nad27_edit
 10
540757
 20
3290174
 30
0.0
  0
VERTEX
  8
a_DXF_streams_nad27_edit
 10
540729
 20
3290149
 30
0.0
  0
VERTEX
  8
a_DXF_streams_nad27_edit
 10
540712
 20
3290141
 30
0.0
  0
VERTEX
  8
a_DXF_streams_nad27_edit
 10
540700
 20
3290140
 30
0.0
  0
VERTEX
  8
a_DXF_streams_nad27_edit
 10
540638
 20
3290148
 30
0.0
  0
SEQEND
  8
a_DXF_streams_nad27_edit
  0
POLYLINE
  8
a_DXF_streams_nad27_edit
 66
1
 40
47.9999845
 41
47.9999845
 62
5
 10
537054
 20
3290148
 30
0.0
  0
VERTEX
  8
a_DXF_streams_nad27_edit
 10
537054
 20
3290148
 30
0.0
  0
VERTEX
  8
a_DXF_streams_nad27_edit
 10
536990
 20
3290191
 30
0.0
  0
VERTEX
  8
a_DXF_streams_nad27_edit
 10
536949
 20
3290210
 30
0.0
  0
VERTEX
  8
a_DXF_streams_nad27_edit
 10
536906
 20
3290224
 30
0.0
  0
VERTEX
  8
a_DXF_streams_nad27_edit
 10
536875
 20
3290227
 30
0.0
  0
VERTEX
  8
a_DXF_streams_nad27_edit
 10
536788
 20
3290217
 30
0.0
  0
VERTEX
  8
a_DXF_streams_nad27_edit
 10
536760
 20
3290209
 30
0.0
  0
VERTEX
  8
a_DXF_streams_nad27_edit
 10
536697
 20
3290177
 30
0.0
  0
VERTEX
  8
a_DXF_streams_nad27_edit
 10
536660
 20
3290169
 30
0.0
  0
VERTEX
  8
a_DXF_streams_nad27_edit
 10
536576
 20
3290195
 30
0.0
  0
VERTEX
  8
a_DXF_streams_nad27_edit
 10
536515
 20
3290186
 30
0.0
  0
VERTEX
  8
a_DXF_streams_nad27_edit
 10
536499
 20
3290188
 30
0.0
  0
VERTEX
  8
a_DXF_streams_nad27_edit
 10
536440
 20
3290212
 30
0.0
  0
VERTEX
  8
a_DXF_streams_nad27_edit
 10
536345
 20
3290236
 30
0.0
  0
VERTEX
  8
a_DXF_streams_nad27_edit
 10
536323
 20
3290238
 30
0.0
  0
VERTEX
  8
a_DXF_streams_nad27_edit
 10
536281
 20
3290234
 30
0.0
  0
VERTEX
  8
a_DXF_streams_nad27_edit
 10
536242
 20
3290248
 30
0.0
  0
VERTEX
  8
a_DXF_streams_nad27_edit
 10
536182
 20
3290260
 30
0.0
  0
VERTEX
  8
a_DXF_streams_nad27_edit
 10
536096
 20
3290268
 30
0.0
  0
VERTEX
  8
a_DXF_streams_nad27_edit
 10
536046
 20
3290267
 30
0.0
  0
VERTEX
  8
a_DXF_streams_nad27_edit
 10
535969
 20
3290258
 30
0.0
  0
VERTEX
  8
a_DXF_streams_nad27_edit
 10
535908
 20
3290234
 30
0.0
  0
VERTEX
  8
a_DXF_streams_nad27_edit
 10
535788
 20
3290156
 30
0.0
  0
SEQEND
  8
a_DXF_streams_nad27_edit
  0
POLYLINE
  8
a_DXF_streams_nad27_edit
 66
1
 40
47.9999845
 41
47.9999845
 62
5
 10
537054
 20
3290148
 30
0.0
  0
VERTEX
  8
a_DXF_streams_nad27_edit
 10
537054
 20
3290148
 30
0.0
  0
VERTEX
  8
a_DXF_streams_nad27_edit
 10
536990
 20
3290191
 30
0.0
  0
VERTEX
  8
a_DXF_streams_nad27_edit
 10
536949
 20
3290210
 30
0.0
  0
VERTEX
  8
a_DXF_streams_nad27_edit
 10
536906
 20
3290224
 30
0.0
  0
VERTEX
  8
a_DXF_streams_nad27_edit
 10
536875
 20
3290227
 30
0.0
  0
VERTEX
  8
a_DXF_streams_nad27_edit
 10
536788
 20
3290217
 30
0.0
  0
VERTEX
  8
a_DXF_streams_nad27_edit
 10
536760
 20
3290209
 30
0.0
  0
VERTEX
  8
a_DXF_streams_nad27_edit
 10
536697
 20
3290177
 30
0.0
  0
VERTEX
  8
a_DXF_streams_nad27_edit
 10
536660
 20
3290169
 30
0.0
  0
VERTEX
  8
a_DXF_streams_nad27_edit
 10
536576
 20
3290195
 30
0.0
  0
VERTEX
  8
a_DXF_streams_nad27_edit
 10
536515
 20
3290186
 30
0.0
  0
VERTEX
  8
a_DXF_streams_nad27_edit
 10
536499
 20
3290188
 30
0.0
  0
VERTEX
  8
a_DXF_streams_nad27_edit
 10
536440
 20
3290212
 30
0.0
  0
VERTEX
  8
a_DXF_streams_nad27_edit
 10
536345
 20
3290236
 30
0.0
  0
VERTEX
  8
a_DXF_streams_nad27_edit
 10
536323
 20
3290238
 30
0.0
  0
VERTEX
  8
a_DXF_streams_nad27_edit
 10
536281
 20
3290234
 30
0.0
  0
VERTEX
  8
a_DXF_streams_nad27_edit
 10
536242
 20
3290248
 30
0.0
  0
VERTEX
  8
a_DXF_streams_nad27_edit
 10
536182
 20
3290260
 30
0.0
  0
VERTEX
  8
a_DXF_streams_nad27_edit
 10
536096
 20
3290268
 30
0.0
  0
VERTEX
  8
a_DXF_streams_nad27_edit
 10
536046
 20
3290267
 30
0.0
  0
VERTEX
  8
a_DXF_streams_nad27_edit
 10
535969
 20
3290258
 30
0.0
  0
VERTEX
  8
a_DXF_streams_nad27_edit
 10
535908
 20
3290234
 30
0.0
  0
VERTEX
  8
a_DXF_streams_nad27_edit
 10
535788
 20
3290156
 30
0.0
  0
SEQEND
  8
a_DXF_streams_nad27_edit
  0
POLYLINE
  8
a_DXF_streams_nad27_edit
 66
1
 40
47.9999845
 41
47.9999845
 62
5
 10
546908
 20
3290155
 30
0.0
  0
VERTEX
  8
a_DXF_streams_nad27_edit
 10
546908
 20
3290155
 30
0.0
  0
VERTEX
  8
a_DXF_streams_nad27_edit
 10
546896
 20
3290156
 30
0.0
  0
VERTEX
  8
a_DXF_streams_nad27_edit
 10
546859
 20
3290148
 30
0.0
  0
VERTEX
  8
a_DXF_streams_nad27_edit
 10
546826
 20
3290157
 30
0.0
  0
VERTEX
  8
a_DXF_streams_nad27_edit
 10
546706
 20
3290238
 30
0.0
  0
VERTEX
  8
a_DXF_streams_nad27_edit
 10
546695
 20
3290239
 30
0.0
  0
VERTEX
  8
a_DXF_streams_nad27_edit
 10
546625
 20
3290290
 30
0.0
  0
VERTEX
  8
a_DXF_streams_nad27_edit
 10
546530
 20
3290345
 30
0.0
  0
VERTEX
  8
a_DXF_streams_nad27_edit
 10
546466
 20
3290371
 30
0.0
  0
VERTEX
  8
a_DXF_streams_nad27_edit
 10
546449
 20
3290373
 30
0.0
  0
VERTEX
  8
a_DXF_streams_nad27_edit
 10
546397
 20
3290372
 30
0.0
  0
VERTEX
  8
a_DXF_streams_nad27_edit
 10
546276
 20
3290390
 30
0.0
  0
VERTEX
  8
a_DXF_streams_nad27_edit
 10
546124
 20
3290403
 30
0.0
  0
VERTEX
  8
a_DXF_streams_nad27_edit
 10
546112
 20
3290399
 30
0.0
  0
VERTEX
  8
a_DXF_streams_nad27_edit
 10
546053
 20
3290349
 30
0.0
  0
VERTEX
  8
a_DXF_streams_nad27_edit
 10
546014
 20
3290327
 30
0.0
  0
VERTEX
  8
a_DXF_streams_nad27_edit
 10
545994
 20
3290296
 30
0.0
  0
VERTEX
  8
a_DXF_streams_nad27_edit
 10
545984
 20
3290286
 30
0.0
  0
VERTEX
  8
a_DXF_streams_nad27_edit
 10
545894
 20
3290248
 30
0.0
  0
VERTEX
  8
a_DXF_streams_nad27_edit
 10
545878
 20
3290234
 30
0.0
  0
VERTEX
  8
a_DXF_streams_nad27_edit
 10
545866
 20
3290215
 30
0.0
  0
VERTEX
  8
a_DXF_streams_nad27_edit
 10
545860
 20
3290195
 30
0.0
  0
VERTEX
  8
a_DXF_streams_nad27_edit
 10
545861
 20
3290174
 30
0.0
  0
VERTEX
  8
a_DXF_streams_nad27_edit
 10
545864
 20
3290160
 30
0.0
  0
VERTEX
  8
a_DXF_streams_nad27_edit
 10
545890
 20
3290106
 30
0.0
  0
VERTEX
  8
a_DXF_streams_nad27_edit
 10
545940
 20
3290029
 30
0.0
  0
VERTEX
  8
a_DXF_streams_nad27_edit
 10
545965
 20
3289966
 30
0.0
  0
VERTEX
  8
a_DXF_streams_nad27_edit
 10
545979
 20
3289924
 30
0.0
  0
VERTEX
  8
a_DXF_streams_nad27_edit
 10
545981
 20
3289907
 30
0.0
  0
VERTEX
  8
a_DXF_streams_nad27_edit
 10
545977
 20
3289889
 30
0.0
  0
VERTEX
  8
a_DXF_streams_nad27_edit
 10
545961
 20
3289862
 30
0.0
  0
VERTEX
  8
a_DXF_streams_nad27_edit
 10
545944
 20
3289849
 30
0.0
  0
VERTEX
  8
a_DXF_streams_nad27_edit
 10
545900
 20
3289835
 30
0.0
  0
VERTEX
  8
a_DXF_streams_nad27_edit
 10
545858
 20
3289831
 30
0.0
  0
VERTEX
  8
a_DXF_streams_nad27_edit
 10
545817
 20
3289847
 30
0.0
  0
VERTEX
  8
a_DXF_streams_nad27_edit
 10
545748
 20
3289896
 30
0.0
  0
VERTEX
  8
a_DXF_streams_nad27_edit
 10
545679
 20
3289973
 30
0.0
  0
SEQEND
  8
a_DXF_streams_nad27_edit
  0
POLYLINE
  8
a_DXF_streams_nad27_edit
 66
1
 40
47.9999845
 41
47.9999845
 62
5
 10
546908
 20
3290155
 30
0.0
  0
VERTEX
  8
a_DXF_streams_nad27_edit
 10
546908
 20
3290155
 30
0.0
  0
VERTEX
  8
a_DXF_streams_nad27_edit
 10
546896
 20
3290156
 30
0.0
  0
VERTEX
  8
a_DXF_streams_nad27_edit
 10
546859
 20
3290148
 30
0.0
  0
VERTEX
  8
a_DXF_streams_nad27_edit
 10
546826
 20
3290157
 30
0.0
  0
VERTEX
  8
a_DXF_streams_nad27_edit
 10
546706
 20
3290238
 30
0.0
  0
VERTEX
  8
a_DXF_streams_nad27_edit
 10
546695
 20
3290239
 30
0.0
  0
VERTEX
  8
a_DXF_streams_nad27_edit
 10
546625
 20
3290290
 30
0.0
  0
VERTEX
  8
a_DXF_streams_nad27_edit
 10
546530
 20
3290345
 30
0.0
  0
VERTEX
  8
a_DXF_streams_nad27_edit
 10
546466
 20
3290371
 30
0.0
  0
VERTEX
  8
a_DXF_streams_nad27_edit
 10
546449
 20
3290373
 30
0.0
  0
VERTEX
  8
a_DXF_streams_nad27_edit
 10
546397
 20
3290372
 30
0.0
  0
VERTEX
  8
a_DXF_streams_nad27_edit
 10
546276
 20
3290390
 30
0.0
  0
VERTEX
  8
a_DXF_streams_nad27_edit
 10
546124
 20
3290403
 30
0.0
  0
VERTEX
  8
a_DXF_streams_nad27_edit
 10
546112
 20
3290399
 30
0.0
  0
VERTEX
  8
a_DXF_streams_nad27_edit
 10
546053
 20
3290349
 30
0.0
  0
VERTEX
  8
a_DXF_streams_nad27_edit
 10
546014
 20
3290327
 30
0.0
  0
VERTEX
  8
a_DXF_streams_nad27_edit
 10
545994
 20
3290296
 30
0.0
  0
VERTEX
  8
a_DXF_streams_nad27_edit
 10
545984
 20
3290286
 30
0.0
  0
VERTEX
  8
a_DXF_streams_nad27_edit
 10
545894
 20
3290248
 30
0.0
  0
VERTEX
  8
a_DXF_streams_nad27_edit
 10
545878
 20
3290234
 30
0.0
  0
VERTEX
  8
a_DXF_streams_nad27_edit
 10
545866
 20
3290215
 30
0.0
  0
VERTEX
  8
a_DXF_streams_nad27_edit
 10
545860
 20
3290195
 30
0.0
  0
VERTEX
  8
a_DXF_streams_nad27_edit
 10
545861
 20
3290174
 30
0.0
  0
VERTEX
  8
a_DXF_streams_nad27_edit
 10
545864
 20
3290160
 30
0.0
  0
VERTEX
  8
a_DXF_streams_nad27_edit
 10
545890
 20
3290106
 30
0.0
  0
VERTEX
  8
a_DXF_streams_nad27_edit
 10
545940
 20
3290029
 30
0.0
  0
VERTEX
  8
a_DXF_streams_nad27_edit
 10
545965
 20
3289966
 30
0.0
  0
VERTEX
  8
a_DXF_streams_nad27_edit
 10
545979
 20
3289924
 30
0.0
  0
VERTEX
  8
a_DXF_streams_nad27_edit
 10
545981
 20
3289907
 30
0.0
  0
VERTEX
  8
a_DXF_streams_nad27_edit
 10
545977
 20
3289889
 30
0.0
  0
VERTEX
  8
a_DXF_streams_nad27_edit
 10
545961
 20
3289862
 30
0.0
  0
VERTEX
  8
a_DXF_streams_nad27_edit
 10
545944
 20
3289849
 30
0.0
  0
VERTEX
  8
a_DXF_streams_nad27_edit
 10
545900
 20
3289835
 30
0.0
  0
VERTEX
  8
a_DXF_streams_nad27_edit
 10
545858
 20
3289831
 30
0.0
  0
VERTEX
  8
a_DXF_streams_nad27_edit
 10
545817
 20
3289847
 30
0.0
  0
VERTEX
  8
a_DXF_streams_nad27_edit
 10
545748
 20
3289896
 30
0.0
  0
VERTEX
  8
a_DXF_streams_nad27_edit
 10
545679
 20
3289973
 30
0.0
  0
SEQEND
  8
a_DXF_streams_nad27_edit
  0
POLYLINE
  8
a_DXF_streams_nad27_edit
 66
1
 40
47.9999845
 41
47.9999845
 62
5
 10
538354
 20
3290518
 30
0.0
  0
VERTEX
  8
a_DXF_streams_nad27_edit
 10
538354
 20
3290518
 30
0.0
  0
VERTEX
  8
a_DXF_streams_nad27_edit
 10
538409
 20
3290483
 30
0.0
  0
VERTEX
  8
a_DXF_streams_nad27_edit
 10
538422
 20
3290484
 30
0.0
  0
VERTEX
  8
a_DXF_streams_nad27_edit
 10
538550
 20
3290382
 30
0.0
  0
VERTEX
  8
a_DXF_streams_nad27_edit
 10
538576
 20
3290342
 30
0.0
  0
VERTEX
  8
a_DXF_streams_nad27_edit
 10
538690
 20
3290212
 30
0.0
  0
VERTEX
  8
a_DXF_streams_nad27_edit
 10
538708
 20
3290186
 30
0.0
  0
VERTEX
  8
a_DXF_streams_nad27_edit
 10
538728
 20
3290134
 30
0.0
  0
VERTEX
  8
a_DXF_streams_nad27_edit
 10
538733
 20
3290026
 30
0.0
  0
VERTEX
  8
a_DXF_streams_nad27_edit
 10
538728
 20
3289995
 30
0.0
  0
VERTEX
  8
a_DXF_streams_nad27_edit
 10
538717
 20
3289966
 30
0.0
  0
VERTEX
  8
a_DXF_streams_nad27_edit
 10
538623
 20
3289857
 30
0.0
  0
VERTEX
  8
a_DXF_streams_nad27_edit
 10
538608
 20
3289845
 30
0.0
  0
VERTEX
  8
a_DXF_streams_nad27_edit
 10
538531
 20
3289812
 30
0.0
  0
VERTEX
  8
a_DXF_streams_nad27_edit
 10
538387
 20
3289774
 30
0.0
  0
VERTEX
  8
a_DXF_streams_nad27_edit
 10
538353
 20
3289769
 30
0.0
  0
VERTEX
  8
a_DXF_streams_nad27_edit
 10
538106
 20
3289781
 30
0.0
  0
VERTEX
  8
a_DXF_streams_nad27_edit
 10
538091
 20
3289786
 30
0.0
  0
VERTEX
  8
a_DXF_streams_nad27_edit
 10
538061
 20
3289807
 30
0.0
  0
SEQEND
  8
a_DXF_streams_nad27_edit
  0
POLYLINE
  8
a_DXF_streams_nad27_edit
 66
1
 40
47.9999845
 41
47.9999845
 62
5
 10
538354
 20
3290518
 30
0.0
  0
VERTEX
  8
a_DXF_streams_nad27_edit
 10
538354
 20
3290518
 30
0.0
  0
VERTEX
  8
a_DXF_streams_nad27_edit
 10
538409
 20
3290483
 30
0.0
  0
VERTEX
  8
a_DXF_streams_nad27_edit
 10
538422
 20
3290484
 30
0.0
  0
VERTEX
  8
a_DXF_streams_nad27_edit
 10
538550
 20
3290382
 30
0.0
  0
VERTEX
  8
a_DXF_streams_nad27_edit
 10
538576
 20
3290342
 30
0.0
  0
VERTEX
  8
a_DXF_streams_nad27_edit
 10
538690
 20
3290212
 30
0.0
  0
VERTEX
  8
a_DXF_streams_nad27_edit
 10
538708
 20
3290186
 30
0.0
  0
VERTEX
  8
a_DXF_streams_nad27_edit
 10
538728
 20
3290134
 30
0.0
  0
VERTEX
  8
a_DXF_streams_nad27_edit
 10
538733
 20
3290026
 30
0.0
  0
VERTEX
  8
a_DXF_streams_nad27_edit
 10
538728
 20
3289995
 30
0.0
  0
VERTEX
  8
a_DXF_streams_nad27_edit
 10
538717
 20
3289966
 30
0.0
  0
VERTEX
  8
a_DXF_streams_nad27_edit
 10
538623
 20
3289857
 30
0.0
  0
VERTEX
  8
a_DXF_streams_nad27_edit
 10
538608
 20
3289845
 30
0.0
  0
VERTEX
  8
a_DXF_streams_nad27_edit
 10
538531
 20
3289812
 30
0.0
  0
VERTEX
  8
a_DXF_streams_nad27_edit
 10
538387
 20
3289774
 30
0.0
  0
VERTEX
  8
a_DXF_streams_nad27_edit
 10
538353
 20
3289769
 30
0.0
  0
VERTEX
  8
a_DXF_streams_nad27_edit
 10
538106
 20
3289781
 30
0.0
  0
VERTEX
  8
a_DXF_streams_nad27_edit
 10
538091
 20
3289786
 30
0.0
  0
VERTEX
  8
a_DXF_streams_nad27_edit
 10
538061
 20
3289807
 30
0.0
  0
SEQEND
  8
a_DXF_streams_nad27_edit
  0
POLYLINE
  8
a_DXF_streams_nad27_edit
 66
1
 40
47.9999845
 41
47.9999845
 62
5
 10
538278
 20
3290558
 30
0.0
  0
VERTEX
  8
a_DXF_streams_nad27_edit
 10
538278
 20
3290558
 30
0.0
  0
VERTEX
  8
a_DXF_streams_nad27_edit
 10
538285
 20
3290553
 30
0.0
  0
SEQEND
  8
a_DXF_streams_nad27_edit
  0
POLYLINE
  8
a_DXF_streams_nad27_edit
 66
1
 40
47.9999845
 41
47.9999845
 62
5
 10
538278
 20
3290558
 30
0.0
  0
VERTEX
  8
a_DXF_streams_nad27_edit
 10
538278
 20
3290558
 30
0.0
  0
VERTEX
  8
a_DXF_streams_nad27_edit
 10
538285
 20
3290553
 30
0.0
  0
SEQEND
  8
a_DXF_streams_nad27_edit
  0
POLYLINE
  8
a_DXF_streams_nad27_edit
 66
1
 40
47.9999845
 41
47.9999845
 62
5
 10
539885
 20
3290572
 30
0.0
  0
VERTEX
  8
a_DXF_streams_nad27_edit
 10
539885
 20
3290572
 30
0.0
  0
VERTEX
  8
a_DXF_streams_nad27_edit
 10
539847
 20
3290619
 30
0.0
  0
VERTEX
  8
a_DXF_streams_nad27_edit
 10
539846
 20
3290626
 30
0.0
  0
VERTEX
  8
a_DXF_streams_nad27_edit
 10
539794
 20
3290667
 30
0.0
  0
VERTEX
  8
a_DXF_streams_nad27_edit
 10
539769
 20
3290668
 30
0.0
  0
VERTEX
  8
a_DXF_streams_nad27_edit
 10
539740
 20
3290666
 30
0.0
  0
VERTEX
  8
a_DXF_streams_nad27_edit
 10
539711
 20
3290657
 30
0.0
  0
VERTEX
  8
a_DXF_streams_nad27_edit
 10
539587
 20
3290604
 30
0.0
  0
VERTEX
  8
a_DXF_streams_nad27_edit
 10
539527
 20
3290591
 30
0.0
  0
VERTEX
  8
a_DXF_streams_nad27_edit
 10
539500
 20
3290572
 30
0.0
  0
VERTEX
  8
a_DXF_streams_nad27_edit
 10
539474
 20
3290526
 30
0.0
  0
VERTEX
  8
a_DXF_streams_nad27_edit
 10
539389
 20
3290414
 30
0.0
  0
VERTEX
  8
a_DXF_streams_nad27_edit
 10
539381
 20
3290409
 30
0.0
  0
VERTEX
  8
a_DXF_streams_nad27_edit
 10
539346
 20
3290422
 30
0.0
  0
VERTEX
  8
a_DXF_streams_nad27_edit
 10
539278
 20
3290462
 30
0.0
  0
VERTEX
  8
a_DXF_streams_nad27_edit
 10
539120
 20
3290541
 30
0.0
  0
VERTEX
  8
a_DXF_streams_nad27_edit
 10
539059
 20
3290576
 30
0.0
  0
VERTEX
  8
a_DXF_streams_nad27_edit
 10
538925
 20
3290682
 30
0.0
  0
VERTEX
  8
a_DXF_streams_nad27_edit
 10
538818
 20
3290760
 30
0.0
  0
VERTEX
  8
a_DXF_streams_nad27_edit
 10
538784
 20
3290796
 30
0.0
  0
SEQEND
  8
a_DXF_streams_nad27_edit
  0
POLYLINE
  8
a_DXF_streams_nad27_edit
 66
1
 40
47.9999845
 41
47.9999845
 62
5
 10
539885
 20
3290572
 30
0.0
  0
VERTEX
  8
a_DXF_streams_nad27_edit
 10
539885
 20
3290572
 30
0.0
  0
VERTEX
  8
a_DXF_streams_nad27_edit
 10
539847
 20
3290619
 30
0.0
  0
VERTEX
  8
a_DXF_streams_nad27_edit
 10
539846
 20
3290626
 30
0.0
  0
VERTEX
  8
a_DXF_streams_nad27_edit
 10
539794
 20
3290667
 30
0.0
  0
VERTEX
  8
a_DXF_streams_nad27_edit
 10
539769
 20
3290668
 30
0.0
  0
VERTEX
  8
a_DXF_streams_nad27_edit
 10
539740
 20
3290666
 30
0.0
  0
VERTEX
  8
a_DXF_streams_nad27_edit
 10
539711
 20
3290657
 30
0.0
  0
VERTEX
  8
a_DXF_streams_nad27_edit
 10
539587
 20
3290604
 30
0.0
  0
VERTEX
  8
a_DXF_streams_nad27_edit
 10
539527
 20
3290591
 30
0.0
  0
VERTEX
  8
a_DXF_streams_nad27_edit
 10
539500
 20
3290572
 30
0.0
  0
VERTEX
  8
a_DXF_streams_nad27_edit
 10
539474
 20
3290526
 30
0.0
  0
VERTEX
  8
a_DXF_streams_nad27_edit
 10
539389
 20
3290414
 30
0.0
  0
VERTEX
  8
a_DXF_streams_nad27_edit
 10
539381
 20
3290409
 30
0.0
  0
VERTEX
  8
a_DXF_streams_nad27_edit
 10
539346
 20
3290422
 30
0.0
  0
VERTEX
  8
a_DXF_streams_nad27_edit
 10
539278
 20
3290462
 30
0.0
  0
VERTEX
  8
a_DXF_streams_nad27_edit
 10
539120
 20
3290541
 30
0.0
  0
VERTEX
  8
a_DXF_streams_nad27_edit
 10
539059
 20
3290576
 30
0.0
  0
VERTEX
  8
a_DXF_streams_nad27_edit
 10
538925
 20
3290682
 30
0.0
  0
VERTEX
  8
a_DXF_streams_nad27_edit
 10
538818
 20
3290760
 30
0.0
  0
VERTEX
  8
a_DXF_streams_nad27_edit
 10
538784
 20
3290796
 30
0.0
  0
SEQEND
  8
a_DXF_streams_nad27_edit
  0
POLYLINE
  8
a_DXF_streams_nad27_edit
 66
1
 40
47.9999845
 41
47.9999845
 62
5
 10
541789
 20
3290772
 30
0.0
  0
VERTEX
  8
a_DXF_streams_nad27_edit
 10
541789
 20
3290772
 30
0.0
  0
VERTEX
  8
a_DXF_streams_nad27_edit
 10
541792
 20
3290755
 30
0.0
  0
VERTEX
  8
a_DXF_streams_nad27_edit
 10
541790
 20
3290741
 30
0.0
  0
VERTEX
  8
a_DXF_streams_nad27_edit
 10
541763
 20
3290710
 30
0.0
  0
VERTEX
  8
a_DXF_streams_nad27_edit
 10
541748
 20
3290705
 30
0.0
  0
VERTEX
  8
a_DXF_streams_nad27_edit
 10
541711
 20
3290706
 30
0.0
  0
VERTEX
  8
a_DXF_streams_nad27_edit
 10
541642
 20
3290723
 30
0.0
  0
VERTEX
  8
a_DXF_streams_nad27_edit
 10
541546
 20
3290786
 30
0.0
  0
VERTEX
  8
a_DXF_streams_nad27_edit
 10
541521
 20
3290796
 30
0.0
  0
VERTEX
  8
a_DXF_streams_nad27_edit
 10
541495
 20
3290795
 30
0.0
  0
VERTEX
  8
a_DXF_streams_nad27_edit
 10
541487
 20
3290798
 30
0.0
  0
VERTEX
  8
a_DXF_streams_nad27_edit
 10
541478
 20
3290808
 30
0.0
  0
VERTEX
  8
a_DXF_streams_nad27_edit
 10
541473
 20
3290821
 30
0.0
  0
SEQEND
  8
a_DXF_streams_nad27_edit
  0
POLYLINE
  8
a_DXF_streams_nad27_edit
 66
1
 40
47.9999845
 41
47.9999845
 62
5
 10
541789
 20
3290772
 30
0.0
  0
VERTEX
  8
a_DXF_streams_nad27_edit
 10
541789
 20
3290772
 30
0.0
  0
VERTEX
  8
a_DXF_streams_nad27_edit
 10
541792
 20
3290755
 30
0.0
  0
VERTEX
  8
a_DXF_streams_nad27_edit
 10
541790
 20
3290741
 30
0.0
  0
VERTEX
  8
a_DXF_streams_nad27_edit
 10
541763
 20
3290710
 30
0.0
  0
VERTEX
  8
a_DXF_streams_nad27_edit
 10
541748
 20
3290705
 30
0.0
  0
VERTEX
  8
a_DXF_streams_nad27_edit
 10
541711
 20
3290706
 30
0.0
  0
VERTEX
  8
a_DXF_streams_nad27_edit
 10
541642
 20
3290723
 30
0.0
  0
VERTEX
  8
a_DXF_streams_nad27_edit
 10
541546
 20
3290786
 30
0.0
  0
VERTEX
  8
a_DXF_streams_nad27_edit
 10
541521
 20
3290796
 30
0.0
  0
VERTEX
  8
a_DXF_streams_nad27_edit
 10
541495
 20
3290795
 30
0.0
  0
VERTEX
  8
a_DXF_streams_nad27_edit
 10
541487
 20
3290798
 30
0.0
  0
VERTEX
  8
a_DXF_streams_nad27_edit
 10
541478
 20
3290808
 30
0.0
  0
VERTEX
  8
a_DXF_streams_nad27_edit
 10
541473
 20
3290821
 30
0.0
  0
SEQEND
  8
a_DXF_streams_nad27_edit
  0
POLYLINE
  8
a_DXF_streams_nad27_edit
 66
1
 40
47.9999845
 41
47.9999845
 62
5
 10
538755
 20
3290847
 30
0.0
  0
VERTEX
  8
a_DXF_streams_nad27_edit
 10
538755
 20
3290847
 30
0.0
  0
VERTEX
  8
a_DXF_streams_nad27_edit
 10
538742
 20
3290866
 30
0.0
  0
SEQEND
  8
a_DXF_streams_nad27_edit
  0
POLYLINE
  8
a_DXF_streams_nad27_edit
 66
1
 40
47.9999845
 41
47.9999845
 62
5
 10
538755
 20
3290847
 30
0.0
  0
VERTEX
  8
a_DXF_streams_nad27_edit
 10
538755
 20
3290847
 30
0.0
  0
VERTEX
  8
a_DXF_streams_nad27_edit
 10
538742
 20
3290866
 30
0.0
  0
SEQEND
  8
a_DXF_streams_nad27_edit
  0
POLYLINE
  8
a_DXF_streams_nad27_edit
 66
1
 40
47.9999845
 41
47.9999845
 62
5
 10
538755
 20
3290847
 30
0.0
  0
VERTEX
  8
a_DXF_streams_nad27_edit
 10
538755
 20
3290847
 30
0.0
  0
VERTEX
  8
a_DXF_streams_nad27_edit
 10
538742
 20
3290866
 30
0.0
  0
SEQEND
  8
a_DXF_streams_nad27_edit
  0
POLYLINE
  8
a_DXF_streams_nad27_edit
 66
1
 40
47.9999845
 41
47.9999845
 62
5
 10
538742
 20
3290866
 30
0.0
  0
VERTEX
  8
a_DXF_streams_nad27_edit
 10
538742
 20
3290866
 30
0.0
  0
VERTEX
  8
a_DXF_streams_nad27_edit
 10
538729
 20
3290869
 30
0.0
  0
VERTEX
  8
a_DXF_streams_nad27_edit
 10
538721
 20
3290876
 30
0.0
  0
VERTEX
  8
a_DXF_streams_nad27_edit
 10
538703
 20
3290886
 30
0.0
  0
VERTEX
  8
a_DXF_streams_nad27_edit
 10
538656
 20
3290896
 30
0.0
  0
VERTEX
  8
a_DXF_streams_nad27_edit
 10
538613
 20
3290899
 30
0.0
  0
VERTEX
  8
a_DXF_streams_nad27_edit
 10
538570
 20
3290897
 30
0.0
  0
VERTEX
  8
a_DXF_streams_nad27_edit
 10
538519
 20
3290887
 30
0.0
  0
VERTEX
  8
a_DXF_streams_nad27_edit
 10
538469
 20
3290872
 30
0.0
  0
VERTEX
  8
a_DXF_streams_nad27_edit
 10
538432
 20
3290856
 30
0.0
  0
VERTEX
  8
a_DXF_streams_nad27_edit
 10
538398
 20
3290836
 30
0.0
  0
VERTEX
  8
a_DXF_streams_nad27_edit
 10
538372
 20
3290814
 30
0.0
  0
VERTEX
  8
a_DXF_streams_nad27_edit
 10
538332
 20
3290758
 30
0.0
  0
VERTEX
  8
a_DXF_streams_nad27_edit
 10
538316
 20
3290727
 30
0.0
  0
VERTEX
  8
a_DXF_streams_nad27_edit
 10
538294
 20
3290666
 30
0.0
  0
VERTEX
  8
a_DXF_streams_nad27_edit
 10
538259
 20
3290592
 30
0.0
  0
VERTEX
  8
a_DXF_streams_nad27_edit
 10
538258
 20
3290581
 30
0.0
  0
VERTEX
  8
a_DXF_streams_nad27_edit
 10
538262
 20
3290569
 30
0.0
  0
VERTEX
  8
a_DXF_streams_nad27_edit
 10
538278
 20
3290558
 30
0.0
  0
SEQEND
  8
a_DXF_streams_nad27_edit
  0
POLYLINE
  8
a_DXF_streams_nad27_edit
 66
1
 40
47.9999845
 41
47.9999845
 62
5
 10
538742
 20
3290866
 30
0.0
  0
VERTEX
  8
a_DXF_streams_nad27_edit
 10
538742
 20
3290866
 30
0.0
  0
VERTEX
  8
a_DXF_streams_nad27_edit
 10
538729
 20
3290869
 30
0.0
  0
VERTEX
  8
a_DXF_streams_nad27_edit
 10
538721
 20
3290876
 30
0.0
  0
VERTEX
  8
a_DXF_streams_nad27_edit
 10
538703
 20
3290886
 30
0.0
  0
VERTEX
  8
a_DXF_streams_nad27_edit
 10
538656
 20
3290896
 30
0.0
  0
VERTEX
  8
a_DXF_streams_nad27_edit
 10
538613
 20
3290899
 30
0.0
  0
VERTEX
  8
a_DXF_streams_nad27_edit
 10
538570
 20
3290897
 30
0.0
  0
VERTEX
  8
a_DXF_streams_nad27_edit
 10
538519
 20
3290887
 30
0.0
  0
VERTEX
  8
a_DXF_streams_nad27_edit
 10
538469
 20
3290872
 30
0.0
  0
VERTEX
  8
a_DXF_streams_nad27_edit
 10
538432
 20
3290856
 30
0.0
  0
VERTEX
  8
a_DXF_streams_nad27_edit
 10
538398
 20
3290836
 30
0.0
  0
VERTEX
  8
a_DXF_streams_nad27_edit
 10
538372
 20
3290814
 30
0.0
  0
VERTEX
  8
a_DXF_streams_nad27_edit
 10
538332
 20
3290758
 30
0.0
  0
VERTEX
  8
a_DXF_streams_nad27_edit
 10
538316
 20
3290727
 30
0.0
  0
VERTEX
  8
a_DXF_streams_nad27_edit
 10
538294
 20
3290666
 30
0.0
  0
VERTEX
  8
a_DXF_streams_nad27_edit
 10
538259
 20
3290592
 30
0.0
  0
VERTEX
  8
a_DXF_streams_nad27_edit
 10
538258
 20
3290581
 30
0.0
  0
VERTEX
  8
a_DXF_streams_nad27_edit
 10
538262
 20
3290569
 30
0.0
  0
VERTEX
  8
a_DXF_streams_nad27_edit
 10
538278
 20
3290558
 30
0.0
  0
SEQEND
  8
a_DXF_streams_nad27_edit
  0
POLYLINE
  8
a_DXF_streams_nad27_edit
 66
1
 40
47.9999845
 41
47.9999845
 62
5
 10
534263
 20
3290729
 30
0.0
  0
VERTEX
  8
a_DXF_streams_nad27_edit
 10
534263
 20
3290729
 30
0.0
  0
VERTEX
  8
a_DXF_streams_nad27_edit
 10
534099
 20
3290874
 30
0.0
  0
VERTEX
  8
a_DXF_streams_nad27_edit
 10
534072
 20
3290903
 30
0.0
  0
SEQEND
  8
a_DXF_streams_nad27_edit
  0
POLYLINE
  8
a_DXF_streams_nad27_edit
 66
1
 40
47.9999845
 41
47.9999845
 62
5
 10
534263
 20
3290729
 30
0.0
  0
VERTEX
  8
a_DXF_streams_nad27_edit
 10
534263
 20
3290729
 30
0.0
  0
VERTEX
  8
a_DXF_streams_nad27_edit
 10
534099
 20
3290874
 30
0.0
  0
VERTEX
  8
a_DXF_streams_nad27_edit
 10
534072
 20
3290903
 30
0.0
  0
SEQEND
  8
a_DXF_streams_nad27_edit
  0
POLYLINE
  8
a_DXF_streams_nad27_edit
 66
1
 40
47.9999845
 41
47.9999845
 62
5
 10
541441
 20
3290863
 30
0.0
  0
VERTEX
  8
a_DXF_streams_nad27_edit
 10
541441
 20
3290863
 30
0.0
  0
VERTEX
  8
a_DXF_streams_nad27_edit
 10
541422
 20
3290873
 30
0.0
  0
VERTEX
  8
a_DXF_streams_nad27_edit
 10
541374
 20
3290886
 30
0.0
  0
VERTEX
  8
a_DXF_streams_nad27_edit
 10
541247
 20
3290907
 30
0.0
  0
VERTEX
  8
a_DXF_streams_nad27_edit
 10
541202
 20
3290948
 30
0.0
  0
VERTEX
  8
a_DXF_streams_nad27_edit
 10
541181
 20
3290952
 30
0.0
  0
VERTEX
  8
a_DXF_streams_nad27_edit
 10
541159
 20
3290942
 30
0.0
  0
VERTEX
  8
a_DXF_streams_nad27_edit
 10
541138
 20
3290926
 30
0.0
  0
VERTEX
  8
a_DXF_streams_nad27_edit
 10
541114
 20
3290899
 30
0.0
  0
VERTEX
  8
a_DXF_streams_nad27_edit
 10
541102
 20
3290881
 30
0.0
  0
VERTEX
  8
a_DXF_streams_nad27_edit
 10
541034
 20
3290657
 30
0.0
  0
VERTEX
  8
a_DXF_streams_nad27_edit
 10
541035
 20
3290630
 30
0.0
  0
VERTEX
  8
a_DXF_streams_nad27_edit
 10
541033
 20
3290621
 30
0.0
  0
VERTEX
  8
a_DXF_streams_nad27_edit
 10
540998
 20
3290592
 30
0.0
  0
VERTEX
  8
a_DXF_streams_nad27_edit
 10
540864
 20
3290501
 30
0.0
  0
VERTEX
  8
a_DXF_streams_nad27_edit
 10
540817
 20
3290460
 30
0.0
  0
VERTEX
  8
a_DXF_streams_nad27_edit
 10
540791
 20
3290447
 30
0.0
  0
VERTEX
  8
a_DXF_streams_nad27_edit
 10
540763
 20
3290445
 30
0.0
  0
VERTEX
  8
a_DXF_streams_nad27_edit
 10
540745
 20
3290435
 30
0.0
  0
VERTEX
  8
a_DXF_streams_nad27_edit
 10
540726
 20
3290421
 30
0.0
  0
VERTEX
  8
a_DXF_streams_nad27_edit
 10
540722
 20
3290413
 30
0.0
  0
VERTEX
  8
a_DXF_streams_nad27_edit
 10
540733
 20
3290390
 30
0.0
  0
VERTEX
  8
a_DXF_streams_nad27_edit
 10
540733
 20
3290380
 30
0.0
  0
VERTEX
  8
a_DXF_streams_nad27_edit
 10
540761
 20
3290355
 30
0.0
  0
VERTEX
  8
a_DXF_streams_nad27_edit
 10
540772
 20
3290330
 30
0.0
  0
VERTEX
  8
a_DXF_streams_nad27_edit
 10
540790
 20
3290251
 30
0.0
  0
VERTEX
  8
a_DXF_streams_nad27_edit
 10
540788
 20
3290234
 30
0.0
  0
VERTEX
  8
a_DXF_streams_nad27_edit
 10
540778
 20
3290210
 30
0.0
  0
SEQEND
  8
a_DXF_streams_nad27_edit
  0
POLYLINE
  8
a_DXF_streams_nad27_edit
 66
1
 40
47.9999845
 41
47.9999845
 62
5
 10
541441
 20
3290863
 30
0.0
  0
VERTEX
  8
a_DXF_streams_nad27_edit
 10
541441
 20
3290863
 30
0.0
  0
VERTEX
  8
a_DXF_streams_nad27_edit
 10
541422
 20
3290873
 30
0.0
  0
VERTEX
  8
a_DXF_streams_nad27_edit
 10
541374
 20
3290886
 30
0.0
  0
VERTEX
  8
a_DXF_streams_nad27_edit
 10
541247
 20
3290907
 30
0.0
  0
VERTEX
  8
a_DXF_streams_nad27_edit
 10
541202
 20
3290948
 30
0.0
  0
VERTEX
  8
a_DXF_streams_nad27_edit
 10
541181
 20
3290952
 30
0.0
  0
VERTEX
  8
a_DXF_streams_nad27_edit
 10
541159
 20
3290942
 30
0.0
  0
VERTEX
  8
a_DXF_streams_nad27_edit
 10
541138
 20
3290926
 30
0.0
  0
VERTEX
  8
a_DXF_streams_nad27_edit
 10
541114
 20
3290899
 30
0.0
  0
VERTEX
  8
a_DXF_streams_nad27_edit
 10
541102
 20
3290881
 30
0.0
  0
VERTEX
  8
a_DXF_streams_nad27_edit
 10
541034
 20
3290657
 30
0.0
  0
VERTEX
  8
a_DXF_streams_nad27_edit
 10
541035
 20
3290630
 30
0.0
  0
VERTEX
  8
a_DXF_streams_nad27_edit
 10
541033
 20
3290621
 30
0.0
  0
VERTEX
  8
a_DXF_streams_nad27_edit
 10
540998
 20
3290592
 30
0.0
  0
VERTEX
  8
a_DXF_streams_nad27_edit
 10
540864
 20
3290501
 30
0.0
  0
VERTEX
  8
a_DXF_streams_nad27_edit
 10
540817
 20
3290460
 30
0.0
  0
VERTEX
  8
a_DXF_streams_nad27_edit
 10
540791
 20
3290447
 30
0.0
  0
VERTEX
  8
a_DXF_streams_nad27_edit
 10
540763
 20
3290445
 30
0.0
  0
VERTEX
  8
a_DXF_streams_nad27_edit
 10
540745
 20
3290435
 30
0.0
  0
VERTEX
  8
a_DXF_streams_nad27_edit
 10
540726
 20
3290421
 30
0.0
  0
VERTEX
  8
a_DXF_streams_nad27_edit
 10
540722
 20
3290413
 30
0.0
  0
VERTEX
  8
a_DXF_streams_nad27_edit
 10
540733
 20
3290390
 30
0.0
  0
VERTEX
  8
a_DXF_streams_nad27_edit
 10
540733
 20
3290380
 30
0.0
  0
VERTEX
  8
a_DXF_streams_nad27_edit
 10
540761
 20
3290355
 30
0.0
  0
VERTEX
  8
a_DXF_streams_nad27_edit
 10
540772
 20
3290330
 30
0.0
  0
VERTEX
  8
a_DXF_streams_nad27_edit
 10
540790
 20
3290251
 30
0.0
  0
VERTEX
  8
a_DXF_streams_nad27_edit
 10
540788
 20
3290234
 30
0.0
  0
VERTEX
  8
a_DXF_streams_nad27_edit
 10
540778
 20
3290210
 30
0.0
  0
SEQEND
  8
a_DXF_streams_nad27_edit
  0
POLYLINE
  8
a_DXF_streams_nad27_edit
 66
1
 40
47.9999845
 41
47.9999845
 62
5
 10
533606
 20
3290955
 30
0.0
  0
VERTEX
  8
a_DXF_streams_nad27_edit
 10
533606
 20
3290955
 30
0.0
  0
VERTEX
  8
a_DXF_streams_nad27_edit
 10
533637
 20
3290911
 30
0.0
  0
VERTEX
  8
a_DXF_streams_nad27_edit
 10
533646
 20
3290885
 30
0.0
  0
VERTEX
  8
a_DXF_streams_nad27_edit
 10
533648
 20
3290859
 30
0.0
  0
VERTEX
  8
a_DXF_streams_nad27_edit
 10
533646
 20
3290831
 30
0.0
  0
VERTEX
  8
a_DXF_streams_nad27_edit
 10
533626
 20
3290782
 30
0.0
  0
VERTEX
  8
a_DXF_streams_nad27_edit
 10
533606
 20
3290759
 30
0.0
  0
SEQEND
  8
a_DXF_streams_nad27_edit
  0
POLYLINE
  8
a_DXF_streams_nad27_edit
 66
1
 40
47.9999845
 41
47.9999845
 62
5
 10
542375
 20
3291074
 30
0.0
  0
VERTEX
  8
a_DXF_streams_nad27_edit
 10
542375
 20
3291074
 30
0.0
  0
VERTEX
  8
a_DXF_streams_nad27_edit
 10
542350
 20
3291071
 30
0.0
  0
VERTEX
  8
a_DXF_streams_nad27_edit
 10
542342
 20
3291081
 30
0.0
  0
VERTEX
  8
a_DXF_streams_nad27_edit
 10
542332
 20
3291095
 30
0.0
  0
SEQEND
  8
a_DXF_streams_nad27_edit
  0
POLYLINE
  8
a_DXF_streams_nad27_edit
 66
1
 40
47.9999845
 41
47.9999845
 62
5
 10
542375
 20
3291074
 30
0.0
  0
VERTEX
  8
a_DXF_streams_nad27_edit
 10
542375
 20
3291074
 30
0.0
  0
VERTEX
  8
a_DXF_streams_nad27_edit
 10
542350
 20
3291071
 30
0.0
  0
VERTEX
  8
a_DXF_streams_nad27_edit
 10
542342
 20
3291081
 30
0.0
  0
VERTEX
  8
a_DXF_streams_nad27_edit
 10
542332
 20
3291095
 30
0.0
  0
SEQEND
  8
a_DXF_streams_nad27_edit
  0
POLYLINE
  8
a_DXF_streams_nad27_edit
 66
1
 40
47.9999845
 41
47.9999845
 62
5
 10
542743
 20
3291136
 30
0.0
  0
VERTEX
  8
a_DXF_streams_nad27_edit
 10
542743
 20
3291136
 30
0.0
  0
VERTEX
  8
a_DXF_streams_nad27_edit
 10
542655
 20
3291084
 30
0.0
  0
VERTEX
  8
a_DXF_streams_nad27_edit
 10
542640
 20
3291080
 30
0.0
  0
VERTEX
  8
a_DXF_streams_nad27_edit
 10
542596
 20
3291080
 30
0.0
  0
VERTEX
  8
a_DXF_streams_nad27_edit
 10
542550
 20
3291087
 30
0.0
  0
VERTEX
  8
a_DXF_streams_nad27_edit
 10
542502
 20
3291086
 30
0.0
  0
VERTEX
  8
a_DXF_streams_nad27_edit
 10
542375
 20
3291074
 30
0.0
  0
SEQEND
  8
a_DXF_streams_nad27_edit
  0
POLYLINE
  8
a_DXF_streams_nad27_edit
 66
1
 40
47.9999845
 41
47.9999845
 62
5
 10
542743
 20
3291136
 30
0.0
  0
VERTEX
  8
a_DXF_streams_nad27_edit
 10
542743
 20
3291136
 30
0.0
  0
VERTEX
  8
a_DXF_streams_nad27_edit
 10
542655
 20
3291084
 30
0.0
  0
VERTEX
  8
a_DXF_streams_nad27_edit
 10
542640
 20
3291080
 30
0.0
  0
VERTEX
  8
a_DXF_streams_nad27_edit
 10
542596
 20
3291080
 30
0.0
  0
VERTEX
  8
a_DXF_streams_nad27_edit
 10
542550
 20
3291087
 30
0.0
  0
VERTEX
  8
a_DXF_streams_nad27_edit
 10
542502
 20
3291086
 30
0.0
  0
VERTEX
  8
a_DXF_streams_nad27_edit
 10
542375
 20
3291074
 30
0.0
  0
SEQEND
  8
a_DXF_streams_nad27_edit
  0
POLYLINE
  8
a_DXF_streams_nad27_edit
 66
1
 40
47.9999845
 41
47.9999845
 62
5
 10
544597
 20
3291129
 30
0.0
  0
VERTEX
  8
a_DXF_streams_nad27_edit
 10
544597
 20
3291129
 30
0.0
  0
VERTEX
  8
a_DXF_streams_nad27_edit
 10
544569
 20
3291153
 30
0.0
  0
SEQEND
  8
a_DXF_streams_nad27_edit
  0
POLYLINE
  8
a_DXF_streams_nad27_edit
 66
1
 40
47.9999845
 41
47.9999845
 62
5
 10
542280
 20
3291176
 30
0.0
  0
VERTEX
  8
a_DXF_streams_nad27_edit
 10
542280
 20
3291176
 30
0.0
  0
VERTEX
  8
a_DXF_streams_nad27_edit
 10
542261
 20
3291194
 30
0.0
  0
VERTEX
  8
a_DXF_streams_nad27_edit
 10
542240
 20
3291193
 30
0.0
  0
VERTEX
  8
a_DXF_streams_nad27_edit
 10
542030
 20
3291201
 30
0.0
  0
VERTEX
  8
a_DXF_streams_nad27_edit
 10
542002
 20
3291200
 30
0.0
  0
VERTEX
  8
a_DXF_streams_nad27_edit
 10
541983
 20
3291195
 30
0.0
  0
VERTEX
  8
a_DXF_streams_nad27_edit
 10
541965
 20
3291184
 30
0.0
  0
VERTEX
  8
a_DXF_streams_nad27_edit
 10
541942
 20
3291154
 30
0.0
  0
VERTEX
  8
a_DXF_streams_nad27_edit
 10
541917
 20
3291073
 30
0.0
  0
VERTEX
  8
a_DXF_streams_nad27_edit
 10
541898
 20
3291020
 30
0.0
  0
VERTEX
  8
a_DXF_streams_nad27_edit
 10
541877
 20
3290979
 30
0.0
  0
VERTEX
  8
a_DXF_streams_nad27_edit
 10
541785
 20
3290845
 30
0.0
  0
VERTEX
  8
a_DXF_streams_nad27_edit
 10
541778
 20
3290820
 30
0.0
  0
VERTEX
  8
a_DXF_streams_nad27_edit
 10
541778
 20
3290804
 30
0.0
  0
VERTEX
  8
a_DXF_streams_nad27_edit
 10
541789
 20
3290772
 30
0.0
  0
SEQEND
  8
a_DXF_streams_nad27_edit
  0
POLYLINE
  8
a_DXF_streams_nad27_edit
 66
1
 40
47.9999845
 41
47.9999845
 62
5
 10
542280
 20
3291176
 30
0.0
  0
VERTEX
  8
a_DXF_streams_nad27_edit
 10
542280
 20
3291176
 30
0.0
  0
VERTEX
  8
a_DXF_streams_nad27_edit
 10
542261
 20
3291194
 30
0.0
  0
VERTEX
  8
a_DXF_streams_nad27_edit
 10
542240
 20
3291193
 30
0.0
  0
VERTEX
  8
a_DXF_streams_nad27_edit
 10
542030
 20
3291201
 30
0.0
  0
VERTEX
  8
a_DXF_streams_nad27_edit
 10
542002
 20
3291200
 30
0.0
  0
VERTEX
  8
a_DXF_streams_nad27_edit
 10
541983
 20
3291195
 30
0.0
  0
VERTEX
  8
a_DXF_streams_nad27_edit
 10
541965
 20
3291184
 30
0.0
  0
VERTEX
  8
a_DXF_streams_nad27_edit
 10
541942
 20
3291154
 30
0.0
  0
VERTEX
  8
a_DXF_streams_nad27_edit
 10
541917
 20
3291073
 30
0.0
  0
VERTEX
  8
a_DXF_streams_nad27_edit
 10
541898
 20
3291020
 30
0.0
  0
VERTEX
  8
a_DXF_streams_nad27_edit
 10
541877
 20
3290979
 30
0.0
  0
VERTEX
  8
a_DXF_streams_nad27_edit
 10
541785
 20
3290845
 30
0.0
  0
VERTEX
  8
a_DXF_streams_nad27_edit
 10
541778
 20
3290820
 30
0.0
  0
VERTEX
  8
a_DXF_streams_nad27_edit
 10
541778
 20
3290804
 30
0.0
  0
VERTEX
  8
a_DXF_streams_nad27_edit
 10
541789
 20
3290772
 30
0.0
  0
SEQEND
  8
a_DXF_streams_nad27_edit
  0
POLYLINE
  8
a_DXF_streams_nad27_edit
 66
1
 40
47.9999845
 41
47.9999845
 62
5
 10
545088
 20
3291197
 30
0.0
  0
VERTEX
  8
a_DXF_streams_nad27_edit
 10
545088
 20
3291197
 30
0.0
  0
VERTEX
  8
a_DXF_streams_nad27_edit
 10
545040
 20
3291234
 30
0.0
  0
VERTEX
  8
a_DXF_streams_nad27_edit
 10
545033
 20
3291243
 30
0.0
  0
VERTEX
  8
a_DXF_streams_nad27_edit
 10
545021
 20
3291251
 30
0.0
  0
VERTEX
  8
a_DXF_streams_nad27_edit
 10
545007
 20
3291251
 30
0.0
  0
VERTEX
  8
a_DXF_streams_nad27_edit
 10
544964
 20
3291265
 30
0.0
  0
VERTEX
  8
a_DXF_streams_nad27_edit
 10
544943
 20
3291268
 30
0.0
  0
VERTEX
  8
a_DXF_streams_nad27_edit
 10
544912
 20
3291262
 30
0.0
  0
VERTEX
  8
a_DXF_streams_nad27_edit
 10
544755
 20
3291179
 30
0.0
  0
VERTEX
  8
a_DXF_streams_nad27_edit
 10
544597
 20
3291129
 30
0.0
  0
SEQEND
  8
a_DXF_streams_nad27_edit
  0
POLYLINE
  8
a_DXF_streams_nad27_edit
 66
1
 40
47.9999845
 41
47.9999845
 62
5
 10
545088
 20
3291197
 30
0.0
  0
VERTEX
  8
a_DXF_streams_nad27_edit
 10
545088
 20
3291197
 30
0.0
  0
VERTEX
  8
a_DXF_streams_nad27_edit
 10
545040
 20
3291234
 30
0.0
  0
VERTEX
  8
a_DXF_streams_nad27_edit
 10
545033
 20
3291243
 30
0.0
  0
VERTEX
  8
a_DXF_streams_nad27_edit
 10
545021
 20
3291251
 30
0.0
  0
VERTEX
  8
a_DXF_streams_nad27_edit
 10
545007
 20
3291251
 30
0.0
  0
VERTEX
  8
a_DXF_streams_nad27_edit
 10
544964
 20
3291265
 30
0.0
  0
VERTEX
  8
a_DXF_streams_nad27_edit
 10
544943
 20
3291268
 30
0.0
  0
VERTEX
  8
a_DXF_streams_nad27_edit
 10
544912
 20
3291262
 30
0.0
  0
VERTEX
  8
a_DXF_streams_nad27_edit
 10
544755
 20
3291179
 30
0.0
  0
VERTEX
  8
a_DXF_streams_nad27_edit
 10
544597
 20
3291129
 30
0.0
  0
SEQEND
  8
a_DXF_streams_nad27_edit
  0
POLYLINE
  8
a_DXF_streams_nad27_edit
 66
1
 40
47.9999845
 41
47.9999845
 62
5
 10
533930
 20
3291250
 30
0.0
  0
VERTEX
  8
a_DXF_streams_nad27_edit
 10
533930
 20
3291250
 30
0.0
  0
VERTEX
  8
a_DXF_streams_nad27_edit
 10
533868
 20
3291303
 30
0.0
  0
SEQEND
  8
a_DXF_streams_nad27_edit
  0
POLYLINE
  8
a_DXF_streams_nad27_edit
 66
1
 40
47.9999845
 41
47.9999845
 62
5
 10
533930
 20
3291250
 30
0.0
  0
VERTEX
  8
a_DXF_streams_nad27_edit
 10
533930
 20
3291250
 30
0.0
  0
VERTEX
  8
a_DXF_streams_nad27_edit
 10
533868
 20
3291303
 30
0.0
  0
SEQEND
  8
a_DXF_streams_nad27_edit
  0
POLYLINE
  8
a_DXF_streams_nad27_edit
 66
1
 40
47.9999845
 41
47.9999845
 62
5
 10
533868
 20
3291303
 30
0.0
  0
VERTEX
  8
a_DXF_streams_nad27_edit
 10
533868
 20
3291303
 30
0.0
  0
VERTEX
  8
a_DXF_streams_nad27_edit
 10
533767
 20
3291325
 30
0.0
  0
VERTEX
  8
a_DXF_streams_nad27_edit
 10
533737
 20
3291322
 30
0.0
  0
VERTEX
  8
a_DXF_streams_nad27_edit
 10
533654
 20
3291299
 30
0.0
  0
VERTEX
  8
a_DXF_streams_nad27_edit
 10
533619
 20
3291279
 30
0.0
  0
VERTEX
  8
a_DXF_streams_nad27_edit
 10
533606
 20
3291265
 30
0.0
  0
SEQEND
  8
a_DXF_streams_nad27_edit
  0
POLYLINE
  8
a_DXF_streams_nad27_edit
 66
1
 40
47.9999845
 41
47.9999845
 62
5
 10
544597
 20
3291129
 30
0.0
  0
VERTEX
  8
a_DXF_streams_nad27_edit
 10
544597
 20
3291129
 30
0.0
  0
VERTEX
  8
a_DXF_streams_nad27_edit
 10
544478
 20
3291099
 30
0.0
  0
VERTEX
  8
a_DXF_streams_nad27_edit
 10
544399
 20
3291093
 30
0.0
  0
VERTEX
  8
a_DXF_streams_nad27_edit
 10
544350
 20
3291095
 30
0.0
  0
VERTEX
  8
a_DXF_streams_nad27_edit
 10
544270
 20
3291114
 30
0.0
  0
VERTEX
  8
a_DXF_streams_nad27_edit
 10
544101
 20
3291179
 30
0.0
  0
VERTEX
  8
a_DXF_streams_nad27_edit
 10
544028
 20
3291199
 30
0.0
  0
VERTEX
  8
a_DXF_streams_nad27_edit
 10
543960
 20
3291233
 30
0.0
  0
VERTEX
  8
a_DXF_streams_nad27_edit
 10
543894
 20
3291284
 30
0.0
  0
VERTEX
  8
a_DXF_streams_nad27_edit
 10
543767
 20
3291363
 30
0.0
  0
VERTEX
  8
a_DXF_streams_nad27_edit
 10
543762
 20
3291373
 30
0.0
  0
SEQEND
  8
a_DXF_streams_nad27_edit
  0
POLYLINE
  8
a_DXF_streams_nad27_edit
 66
1
 40
47.9999845
 41
47.9999845
 62
5
 10
544597
 20
3291129
 30
0.0
  0
VERTEX
  8
a_DXF_streams_nad27_edit
 10
544597
 20
3291129
 30
0.0
  0
VERTEX
  8
a_DXF_streams_nad27_edit
 10
544478
 20
3291099
 30
0.0
  0
VERTEX
  8
a_DXF_streams_nad27_edit
 10
544399
 20
3291093
 30
0.0
  0
VERTEX
  8
a_DXF_streams_nad27_edit
 10
544350
 20
3291095
 30
0.0
  0
VERTEX
  8
a_DXF_streams_nad27_edit
 10
544270
 20
3291114
 30
0.0
  0
VERTEX
  8
a_DXF_streams_nad27_edit
 10
544101
 20
3291179
 30
0.0
  0
VERTEX
  8
a_DXF_streams_nad27_edit
 10
544028
 20
3291199
 30
0.0
  0
VERTEX
  8
a_DXF_streams_nad27_edit
 10
543960
 20
3291233
 30
0.0
  0
VERTEX
  8
a_DXF_streams_nad27_edit
 10
543894
 20
3291284
 30
0.0
  0
VERTEX
  8
a_DXF_streams_nad27_edit
 10
543767
 20
3291363
 30
0.0
  0
VERTEX
  8
a_DXF_streams_nad27_edit
 10
543762
 20
3291373
 30
0.0
  0
SEQEND
  8
a_DXF_streams_nad27_edit
  0
POLYLINE
  8
a_DXF_streams_nad27_edit
 66
1
 40
47.9999845
 41
47.9999845
 62
5
 10
543036.959
 20
3291659.99
 30
0.0
  0
VERTEX
  8
a_DXF_streams_nad27_edit
 10
543036.959
 20
3291659.99
 30
0.0
  0
VERTEX
  8
a_DXF_streams_nad27_edit
 10
543048
 20
3291608
 30
0.0
  0
VERTEX
  8
a_DXF_streams_nad27_edit
 10
543066
 20
3291549
 30
0.0
  0
VERTEX
  8
a_DXF_streams_nad27_edit
 10
543068
 20
3291520
 30
0.0
  0
VERTEX
  8
a_DXF_streams_nad27_edit
 10
543064
 20
3291500
 30
0.0
  0
VERTEX
  8
a_DXF_streams_nad27_edit
 10
543052
 20
3291475
 30
0.0
  0
VERTEX
  8
a_DXF_streams_nad27_edit
 10
543036
 20
3291454
 30
0.0
  0
VERTEX
  8
a_DXF_streams_nad27_edit
 10
542965
 20
3291380
 30
0.0
  0
VERTEX
  8
a_DXF_streams_nad27_edit
 10
542780
 20
3291170
 30
0.0
  0
VERTEX
  8
a_DXF_streams_nad27_edit
 10
542743
 20
3291136
 30
0.0
  0
SEQEND
  8
a_DXF_streams_nad27_edit
  0
POLYLINE
  8
a_DXF_streams_nad27_edit
 66
1
 40
47.9999845
 41
47.9999845
 62
5
 10
543036.959
 20
3291659.99
 30
0.0
  0
VERTEX
  8
a_DXF_streams_nad27_edit
 10
543036.959
 20
3291659.99
 30
0.0
  0
VERTEX
  8
a_DXF_streams_nad27_edit
 10
543048
 20
3291608
 30
0.0
  0
VERTEX
  8
a_DXF_streams_nad27_edit
 10
543066
 20
3291549
 30
0.0
  0
VERTEX
  8
a_DXF_streams_nad27_edit
 10
543068
 20
3291520
 30
0.0
  0
VERTEX
  8
a_DXF_streams_nad27_edit
 10
543064
 20
3291500
 30
0.0
  0
VERTEX
  8
a_DXF_streams_nad27_edit
 10
543052
 20
3291475
 30
0.0
  0
VERTEX
  8
a_DXF_streams_nad27_edit
 10
543036
 20
3291454
 30
0.0
  0
VERTEX
  8
a_DXF_streams_nad27_edit
 10
542965
 20
3291380
 30
0.0
  0
VERTEX
  8
a_DXF_streams_nad27_edit
 10
542780
 20
3291170
 30
0.0
  0
VERTEX
  8
a_DXF_streams_nad27_edit
 10
542743
 20
3291136
 30
0.0
  0
SEQEND
  8
a_DXF_streams_nad27_edit
  0
POLYLINE
  8
a_DXF_streams_nad27_edit
 66
1
 40
47.9999845
 41
47.9999845
 62
5
 10
543796.532
 20
3291659.99
 30
0.0
  0
VERTEX
  8
a_DXF_streams_nad27_edit
 10
543796.532
 20
3291659.99
 30
0.0
  0
VERTEX
  8
a_DXF_streams_nad27_edit
 10
543762.737
 20
3291567.06
 30
0.0
  0
VERTEX
  8
a_DXF_streams_nad27_edit
 10
543744.274
 20
3291437.82
 30
0.0
  0
VERTEX
  8
a_DXF_streams_nad27_edit
 10
543762.737
 20
3291400.89
 30
0.0
  0
SEQEND
  8
a_DXF_streams_nad27_edit
  0
POLYLINE
  8
a_DXF_streams_nad27_edit
 66
1
 40
47.9999845
 41
47.9999845
 62
5
 10
545101.315
 20
3291188.57
 30
0.0
  0
VERTEX
  8
a_DXF_streams_nad27_edit
 10
545101.315
 20
3291188.57
 30
0.0
  0
VERTEX
  8
a_DXF_streams_nad27_edit
 10
545165.936
 20
3291059.33
 30
0.0
  0
VERTEX
  8
a_DXF_streams_nad27_edit
 10
545165.936
 20
3290893.16
 30
0.0
  0
VERTEX
  8
a_DXF_streams_nad27_edit
 10
545110.547
 20
3290754.68
 30
0.0
  0
VERTEX
  8
a_DXF_streams_nad27_edit
 10
545396.725
 20
3290523.89
 30
0.0
  0
VERTEX
  8
a_DXF_streams_nad27_edit
 10
545498.272
 20
3290394.65
 30
0.0
  0
VERTEX
  8
a_DXF_streams_nad27_edit
 10
545599.82
 20
3290293.1
 30
0.0
  0
VERTEX
  8
a_DXF_streams_nad27_edit
 10
545618.283
 20
3290154.63
 30
0.0
  0
VERTEX
  8
a_DXF_streams_nad27_edit
 10
545682.904
 20
3290025.39
 30
0.0
  0
VERTEX
  8
a_DXF_streams_nad27_edit
 10
545682.904
 20
3289970
 30
0.0
  0
SEQEND
  8
a_DXF_streams_nad27_edit
  0
POLYLINE
  8
a_DXF_streams_nad27_edit
 66
1
 40
47.9999845
 41
47.9999845
 62
5
 10
537068.758
 20
3290144.91
 30
0.0
  0
VERTEX
  8
a_DXF_streams_nad27_edit
 10
537068.758
 20
3290144.91
 30
0.0
  0
VERTEX
  8
a_DXF_streams_nad27_edit
 10
537099.625
 20
3290048.45
 30
0.0
  0
VERTEX
  8
a_DXF_streams_nad27_edit
 10
537072.616
 20
3289878.68
 30
0.0
  0
VERTEX
  8
a_DXF_streams_nad27_edit
 10
537026.315
 20
3289813.08
 30
0.0
  0
VERTEX
  8
a_DXF_streams_nad27_edit
 10
537045.607
 20
3289755.21
 30
0.0
  0
SEQEND
  8
a_DXF_streams_nad27_edit
  0
POLYLINE
  8
a_DXF_streams_nad27_edit
 66
1
 40
47.9999845
 41
47.9999845
 62
5
 10
533945.336
 20
3291255.85
 30
0.0
  0
VERTEX
  8
a_DXF_streams_nad27_edit
 10
533945.336
 20
3291255.85
 30
0.0
  0
VERTEX
  8
a_DXF_streams_nad27_edit
 10
534001.042
 20
3291119.68
 30
0.0
  0
VERTEX
  8
a_DXF_streams_nad27_edit
 10
534044.369
 20
3290983.51
 30
0.0
  0
VERTEX
  8
a_DXF_streams_nad27_edit
 10
534069.127
 20
3290915.42
 30
0.0
  0
SEQEND
  8
a_DXF_streams_nad27_edit
  0
POLYLINE
  8
a_DXF_streams_nad27_edit
 66
1
 40
47.9999845
 41
47.9999845
 62
5
 10
534273.381
 20
3290723.55
 30
0.0
  0
VERTEX
  8
a_DXF_streams_nad27_edit
 10
534273.381
 20
3290723.55
 30
0.0
  0
VERTEX
  8
a_DXF_streams_nad27_edit
 10
534322.897
 20
3290630.7
 30
0.0
  0
VERTEX
  8
a_DXF_streams_nad27_edit
 10
534285.76
 20
3290537.86
 30
0.0
  0
VERTEX
  8
a_DXF_streams_nad27_edit
 10
534217.675
 20
3290445.02
 30
0.0
  0
VERTEX
  8
a_DXF_streams_nad27_edit
 10
534223.865
 20
3290253.14
 30
0.0
  0
VERTEX
  8
a_DXF_streams_nad27_edit
 10
534261.002
 20
3290160.3
 30
0.0
  0
VERTEX
  8
a_DXF_streams_nad27_edit
 10
534291.95
 20
3290055.08
 30
0.0
  0
VERTEX
  8
a_DXF_streams_nad27_edit
 10
534310.518
 20
3289993.18
 30
0.0
  0
VERTEX
  8
a_DXF_streams_nad27_edit
 10
534329.087
 20
3289986.99
 30
0.0
  0
SEQEND
  8
a_DXF_streams_nad27_edit
  0
POLYLINE
  8
a_DXF_streams_nad27_edit
 66
1
 40
47.9999845
 41
47.9999845
 62
5
 10
533586.343
 20
3291262.04
 30
0.0
  0
VERTEX
  8
a_DXF_streams_nad27_edit
 10
533586.343
 20
3291262.04
 30
0.0
  0
VERTEX
  8
a_DXF_streams_nad27_edit
 10
533555.396
 20
3291206.33
 30
0.0
  0
VERTEX
  8
a_DXF_streams_nad27_edit
 10
533543.017
 20
3291119.68
 30
0.0
  0
VERTEX
  8
a_DXF_streams_nad27_edit
 10
533561.585
 20
3291045.4
 30
0.0
  0
VERTEX
  8
a_DXF_streams_nad27_edit
 10
533598.722
 20
3290989.7
 30
0.0
  0
SEQEND
  8
a_DXF_streams_nad27_edit
  0
POLYLINE
  8
a_DXF_streams_nad27_edit
 66
1
 40
47.9999845
 41
47.9999845
 62
5
 10
533573.964
 20
3290748.31
 30
0.0
  0
VERTEX
  8
a_DXF_streams_nad27_edit
 10
533573.964
 20
3290748.31
 30
0.0
  0
VERTEX
  8
a_DXF_streams_nad27_edit
 10
533474.932
 20
3290711.17
 30
0.0
  0
VERTEX
  8
a_DXF_streams_nad27_edit
 10
533320.194
 20
3290674.03
 30
0.0
  0
VERTEX
  8
a_DXF_streams_nad27_edit
 10
533214.972
 20
3290643.08
 30
0.0
  0
VERTEX
  8
a_DXF_streams_nad27_edit
 10
533122.129
 20
3290698.79
 30
0.0
  0
VERTEX
  8
a_DXF_streams_nad27_edit
 10
533041.665
 20
3290816.39
 30
0.0
  0
VERTEX
  8
a_DXF_streams_nad27_edit
 10
532930.253
 20
3290804.01
 30
0.0
  0
VERTEX
  8
a_DXF_streams_nad27_edit
 10
532831.221
 20
3290828.77
 30
0.0
  0
VERTEX
  8
a_DXF_streams_nad27_edit
 10
532769.325
 20
3290810.2
 30
0.0
  0
SEQEND
  8
a_DXF_streams_nad27_edit
  0
POLYLINE
  8
a_DXF_streams_nad27_edit
 66
1
 40
47.9999901
 41
47.9999901
 62
5
 10
539895.846
 20
3290556.63
 30
0.0
  0
VERTEX
  8
a_DXF_streams_nad27_edit
 10
539895.846
 20
3290556.63
 30
0.0
  0
VERTEX
  8
a_DXF_streams_nad27_edit
 10
539966.583
 20
3290340.88
 30
0.0
  0
VERTEX
  8
a_DXF_streams_nad27_edit
 10
539970.12
 20
3290231.24
 30
0.0
  0
VERTEX
  8
a_DXF_streams_nad27_edit
 10
539966.583
 20
3290128.67
 30
0.0
  0
VERTEX
  8
a_DXF_streams_nad27_edit
 10
539980.731
 20
3290096.84
 30
0.0
  0
SEQEND
  8
a_DXF_streams_nad27_edit
  0
POLYLINE
  8
a_DXF_streams_nad27_edit
 66
1
 40
47.9999901
 41
47.9999901
 62
5
 10
542811.074
 20
3276197.16
 30
0.0
  0
VERTEX
  8
a_DXF_streams_nad27_edit
 10
542811.074
 20
3276197.16
 30
0.0
  0
VERTEX
  8
a_DXF_streams_nad27_edit
 10
542819.595
 20
3276001.19
 30
0.0
  0
VERTEX
  8
a_DXF_streams_nad27_edit
 10
542896.281
 20
3275754.09
 30
0.0
  0
VERTEX
  8
a_DXF_streams_nad27_edit
 10
543024.091
 20
3275524.03
 30
0.0
  0
VERTEX
  8
a_DXF_streams_nad27_edit
 10
543228.586
 20
3275362.14
 30
0.0
  0
VERTEX
  8
a_DXF_streams_nad27_edit
 10
543450.123
 20
3275208.77
 30
0.0
  0
VERTEX
  8
a_DXF_streams_nad27_edit
 10
543501.247
 20
3275157.64
 30
0.0
  0
VERTEX
  8
a_DXF_streams_nad27_edit
 10
543356.396
 20
3274953.15
 30
0.0
  0
VERTEX
  8
a_DXF_streams_nad27_edit
 10
543237.107
 20
3274842.38
 30
0.0
  0
VERTEX
  8
a_DXF_streams_nad27_edit
 10
543245.628
 20
3274748.65
 30
0.0
  0
VERTEX
  8
a_DXF_streams_nad27_edit
 10
543535.33
 20
3274782.73
 30
0.0
  0
VERTEX
  8
a_DXF_streams_nad27_edit
 10
543884.677
 20
3274816.82
 30
0.0
  0
VERTEX
  8
a_DXF_streams_nad27_edit
 10
544216.982
 20
3274825.34
 30
0.0
  0
VERTEX
  8
a_DXF_streams_nad27_edit
 10
544464.081
 20
3274723.09
 30
0.0
  0
VERTEX
  8
a_DXF_streams_nad27_edit
 10
544600.411
 20
3274629.36
 30
0.0
  0
VERTEX
  8
a_DXF_streams_nad27_edit
 10
544677.097
 20
3274552.68
 30
0.0
  0
SEQEND
  8
a_DXF_streams_nad27_edit
  0
POLYLINE
  8
a_DXF_streams_nad27_edit
 66
1
 40
47.9999901
 41
47.9999901
 62
5
 10
538295.976
 20
3290532.26
 30
0.0
  0
VERTEX
  8
a_DXF_streams_nad27_edit
 10
538295.976
 20
3290532.26
 30
0.0
  0
VERTEX
  8
a_DXF_streams_nad27_edit
 10
538327.35
 20
3290523.29
 30
0.0
  0
SEQEND
  8
a_DXF_streams_nad27_edit
  0
POLYLINE
  8
a_DXF_streams_nad27_edit
 66
1
 40
47.9999901
 41
47.9999901
 62
5
 10
538766.586
 20
3290837.03
 30
0.0
  0
VERTEX
  8
a_DXF_streams_nad27_edit
 10
538766.586
 20
3290837.03
 30
0.0
  0
VERTEX
  8
a_DXF_streams_nad27_edit
 10
538766.586
 20
3290814.62
 30
0.0
  0
SEQEND
  8
a_DXF_streams_nad27_edit
  0
POLYLINE
  8
a_DXF_streams_nad27_edit
 66
1
 40
2.39999673
 41
2.39999673
 62
5
 10
548885.456
 20
3289612.38
 30
0.0
  0
VERTEX
  8
a_DXF_streams_nad27_edit
 10
548885.456
 20
3289612.38
 30
0.0
  0
VERTEX
  8
a_DXF_streams_nad27_edit
 10
548885.456
 20
3289612.38
 30
0.0
  0
VERTEX
  8
a_DXF_streams_nad27_edit
 10
548885.456
 20
3289612.38
 30
0.0
  0
SEQEND
  8
a_DXF_streams_nad27_edit
  0
POLYLINE
  8
a_DXF_streams_nad27_edit
 66
1
 40
47.9999845
 41
47.9999845
 62
5
 10
549096.979
 20
3289487.95
 30
0.0
  0
VERTEX
  8
a_DXF_streams_nad27_edit
 10
549096.979
 20
3289487.95
 30
0.0
  0
VERTEX
  8
a_DXF_streams_nad27_edit
 10
549096.979
 20
3289487.95
 30
0.0
  0
VERTEX
  8
a_DXF_streams_nad27_edit
 10
549096.979
 20
3289487.95
 30
0.0
  0
SEQEND
  8
a_DXF_streams_nad27_edit
  0
POLYLINE
  8
a_DXF_streams_nad27_edit
 66
1
 40
47.9999845
 41
47.9999845
 62
5
 10
549508.638
 20
3289383.01
 30
0.0
  0
VERTEX
  8
a_DXF_streams_nad27_edit
 10
549508.638
 20
3289383.01
 30
0.0
  0
VERTEX
  8
a_DXF_streams_nad27_edit
 10
549811.371
 20
3289416.65
 30
0.0
  0
SEQEND
  8
a_DXF_streams_nad27_edit
  0
POLYLINE
  8
a_DXF_streams_nad27_edit
 66
1
 40
47.9999845
 41
47.9999845
 62
5
 10
549824.826
 20
3289416.65
 30
0.0
  0
VERTEX
  8
a_DXF_streams_nad27_edit
 10
549824.826
 20
3289416.65
 30
0.0
  0
VERTEX
  8
a_DXF_streams_nad27_edit
 10
550147.742
 20
3289369.56
 30
0.0
  0
SEQEND
  8
a_DXF_streams_nad27_edit
  0
POLYLINE
  8
a_DXF_streams_nad27_edit
 66
1
 40
47.9999845
 41
47.9999845
 62
5
 10
550154.469
 20
3289356.1
 30
0.0
  0
VERTEX
  8
a_DXF_streams_nad27_edit
 10
550154.469
 20
3289356.1
 30
0.0
  0
VERTEX
  8
a_DXF_streams_nad27_edit
 10
550342.837
 20
3289315.74
 30
0.0
  0
SEQEND
  8
a_DXF_streams_nad27_edit
  0
POLYLINE
  8
a_DXF_streams_nad27_edit
 66
1
 40
47.9999845
 41
47.9999845
 62
5
 10
550349.564
 20
3289309.01
 30
0.0
  0
VERTEX
  8
a_DXF_streams_nad27_edit
 10
550349.564
 20
3289309.01
 30
0.0
  0
VERTEX
  8
a_DXF_streams_nad27_edit
 10
550450.475
 20
3289255.19
 30
0.0
  0
SEQEND
  8
a_DXF_streams_nad27_edit
  0
POLYLINE
  8
a_DXF_streams_nad27_edit
 66
1
 40
47.9999845
 41
47.9999845
 62
5
 10
550598.478
 20
3289154.28
 30
0.0
  0
VERTEX
  8
a_DXF_streams_nad27_edit
 10
550598.478
 20
3289154.28
 30
0.0
  0
VERTEX
  8
a_DXF_streams_nad27_edit
 10
550800.301
 20
3289194.64
 30
0.0
  0
SEQEND
  8
a_DXF_streams_nad27_edit
  0
POLYLINE
  8
a_DXF_streams_nad27_edit
 66
1
 40
47.9999845
 41
47.9999845
 62
5
 10
550423.566
 20
3289275.37
 30
0.0
  0
VERTEX
  8
a_DXF_streams_nad27_edit
 10
550423.566
 20
3289275.37
 30
0.0
  0
VERTEX
  8
a_DXF_streams_nad27_edit
 10
550578.296
 20
3289161.01
 30
0.0
  0
SEQEND
  8
a_DXF_streams_nad27_edit
  0
POLYLINE
  8
a_DXF_streams_nad27_edit
 66
1
 40
47.9999845
 41
47.9999845
 62
5
 10
550813.756
 20
3289214.83
 30
0.0
  0
VERTEX
  8
a_DXF_streams_nad27_edit
 10
550813.756
 20
3289214.83
 30
0.0
  0
VERTEX
  8
a_DXF_streams_nad27_edit
 10
551002.123
 20
3289376.28
 30
0.0
  0
SEQEND
  8
a_DXF_streams_nad27_edit
  0
POLYLINE
  8
a_DXF_streams_nad27_edit
 66
1
 40
47.9999845
 41
47.9999845
 62
5
 10
551022.305
 20
3289409.92
 30
0.0
  0
VERTEX
  8
a_DXF_streams_nad27_edit
 10
551022.305
 20
3289409.92
 30
0.0
  0
VERTEX
  8
a_DXF_streams_nad27_edit
 10
551103.034
 20
3289477.2
 30
0.0
  0
SEQEND
  8
a_DXF_streams_nad27_edit
  0
POLYLINE
  8
a_DXF_streams_nad27_edit
 66
1
 40
47.9999845
 41
47.9999845
 62
5
 10
551109.762
 20
3289490.65
 30
0.0
  0
VERTEX
  8
a_DXF_streams_nad27_edit
 10
551109.762
 20
3289490.65
 30
0.0
  0
VERTEX
  8
a_DXF_streams_nad27_edit
 10
551425.95
 20
3289645.38
 30
0.0
  0
SEQEND
  8
a_DXF_streams_nad27_edit
  0
POLYLINE
  8
a_DXF_streams_nad27_edit
 66
1
 40
47.9999845
 41
47.9999845
 62
5
 10
551439.405
 20
3289658.84
 30
0.0
  0
VERTEX
  8
a_DXF_streams_nad27_edit
 10
551439.405
 20
3289658.84
 30
0.0
  0
VERTEX
  8
a_DXF_streams_nad27_edit
 10
551600.863
 20
3289726.11
 30
0.0
  0
SEQEND
  8
a_DXF_streams_nad27_edit
  0
POLYLINE
  8
a_DXF_streams_nad27_edit
 66
1
 40
47.9999845
 41
47.9999845
 62
5
 10
551621.045
 20
3289732.84
 30
0.0
  0
VERTEX
  8
a_DXF_streams_nad27_edit
 10
551621.045
 20
3289732.84
 30
0.0
  0
VERTEX
  8
a_DXF_streams_nad27_edit
 10
551668.137
 20
3289719.38
 30
0.0
  0
SEQEND
  8
a_DXF_streams_nad27_edit
  0
POLYLINE
  8
a_DXF_streams_nad27_edit
 66
1
 40
47.9999845
 41
47.9999845
 62
5
 10
551681.592
 20
3289719.38
 30
0.0
  0
VERTEX
  8
a_DXF_streams_nad27_edit
 10
551681.592
 20
3289719.38
 30
0.0
  0
VERTEX
  8
a_DXF_streams_nad27_edit
 10
551769.048
 20
3289672.29
 30
0.0
  0
SEQEND
  8
a_DXF_streams_nad27_edit
  0
POLYLINE
  8
a_DXF_streams_nad27_edit
 66
1
 40
47.9999845
 41
47.9999845
 62
5
 10
551795.958
 20
3289645.38
 30
0.0
  0
VERTEX
  8
a_DXF_streams_nad27_edit
 10
551795.958
 20
3289645.38
 30
0.0
  0
VERTEX
  8
a_DXF_streams_nad27_edit
 10
551822.867
 20
3289564.65
 30
0.0
  0
SEQEND
  8
a_DXF_streams_nad27_edit
  0
POLYLINE
  8
a_DXF_streams_nad27_edit
 66
1
 40
47.9999845
 41
47.9999845
 62
5
 10
551836.322
 20
3289557.93
 30
0.0
  0
VERTEX
  8
a_DXF_streams_nad27_edit
 10
551836.322
 20
3289557.93
 30
0.0
  0
VERTEX
  8
a_DXF_streams_nad27_edit
 10
551917.051
 20
3289403.19
 30
0.0
  0
SEQEND
  8
a_DXF_streams_nad27_edit
  0
POLYLINE
  8
a_DXF_streams_nad27_edit
 66
1
 40
47.9999845
 41
47.9999845
 62
5
 10
551923.779
 20
3289403.19
 30
0.0
  0
VERTEX
  8
a_DXF_streams_nad27_edit
 10
551923.779
 20
3289403.19
 30
0.0
  0
VERTEX
  8
a_DXF_streams_nad27_edit
 10
552024.69
 20
3289235.01
 30
0.0
  0
SEQEND
  8
a_DXF_streams_nad27_edit
  0
POLYLINE
  8
a_DXF_streams_nad27_edit
 66
1
 40
47.9999845
 41
47.9999845
 62
5
 10
552038.145
 20
3289201.37
 30
0.0
  0
VERTEX
  8
a_DXF_streams_nad27_edit
 10
552038.145
 20
3289201.37
 30
0.0
  0
VERTEX
  8
a_DXF_streams_nad27_edit
 10
552152.511
 20
3289107.19
 30
0.0
  0
SEQEND
  8
a_DXF_streams_nad27_edit
  0
POLYLINE
  8
a_DXF_streams_nad27_edit
 66
1
 40
47.9999845
 41
47.9999845
 62
5
 10
552165.965
 20
3289100.46
 30
0.0
  0
VERTEX
  8
a_DXF_streams_nad27_edit
 10
552165.965
 20
3289100.46
 30
0.0
  0
VERTEX
  8
a_DXF_streams_nad27_edit
 10
552354.333
 20
3288965.91
 30
0.0
  0
SEQEND
  8
a_DXF_streams_nad27_edit
  0
POLYLINE
  8
a_DXF_streams_nad27_edit
 66
1
 40
47.9999845
 41
47.9999845
 62
5
 10
552367.788
 20
3288952.46
 30
0.0
  0
VERTEX
  8
a_DXF_streams_nad27_edit
 10
552367.788
 20
3288952.46
 30
0.0
  0
VERTEX
  8
a_DXF_streams_nad27_edit
 10
552535.973
 20
3288965.91
 30
0.0
  0
SEQEND
  8
a_DXF_streams_nad27_edit
  0
POLYLINE
  8
a_DXF_streams_nad27_edit
 66
1
 40
47.9999845
 41
47.9999845
 62
5
 10
552556.155
 20
3288972.64
 30
0.0
  0
VERTEX
  8
a_DXF_streams_nad27_edit
 10
552556.155
 20
3288972.64
 30
0.0
  0
VERTEX
  8
a_DXF_streams_nad27_edit
 10
552838.707
 20
3289053.37
 30
0.0
  0
SEQEND
  8
a_DXF_streams_nad27_edit
  0
POLYLINE
  8
a_DXF_streams_nad27_edit
 66
1
 40
47.9999845
 41
47.9999845
 62
5
 10
552845.434
 20
3289066.82
 30
0.0
  0
VERTEX
  8
a_DXF_streams_nad27_edit
 10
552845.434
 20
3289066.82
 30
0.0
  0
VERTEX
  8
a_DXF_streams_nad27_edit
 10
553040.529
 20
3289208.1
 30
0.0
  0
SEQEND
  8
a_DXF_streams_nad27_edit
  0
POLYLINE
  8
a_DXF_streams_nad27_edit
 66
1
 40
47.9999845
 41
47.9999845
 62
5
 10
553047.256
 20
3289228.28
 30
0.0
  0
VERTEX
  8
a_DXF_streams_nad27_edit
 10
553047.256
 20
3289228.28
 30
0.0
  0
VERTEX
  8
a_DXF_streams_nad27_edit
 10
553289.443
 20
3289369.56
 30
0.0
  0
SEQEND
  8
a_DXF_streams_nad27_edit
  0
POLYLINE
  8
a_DXF_streams_nad27_edit
 66
1
 40
47.9999845
 41
47.9999845
 62
5
 10
553282.716
 20
3289383.01
 30
0.0
  0
VERTEX
  8
a_DXF_streams_nad27_edit
 10
553282.716
 20
3289383.01
 30
0.0
  0
VERTEX
  8
a_DXF_streams_nad27_edit
 10
553397.082
 20
3289443.56
 30
0.0
  0
SEQEND
  8
a_DXF_streams_nad27_edit
  0
POLYLINE
  8
a_DXF_streams_nad27_edit
 66
1
 40
47.9999845
 41
47.9999845
 62
5
 10
553430.719
 20
3289457.01
 30
0.0
  0
VERTEX
  8
a_DXF_streams_nad27_edit
 10
553430.719
 20
3289457.01
 30
0.0
  0
VERTEX
  8
a_DXF_streams_nad27_edit
 10
553437.446
 20
3289457.01
 30
0.0
  0
SEQEND
  8
a_DXF_streams_nad27_edit
  0
POLYLINE
  8
a_DXF_streams_nad27_edit
 66
1
 40
47.9999845
 41
47.9999845
 62
5
 10
553450.901
 20
3289477.2
 30
0.0
  0
VERTEX
  8
a_DXF_streams_nad27_edit
 10
553450.901
 20
3289477.2
 30
0.0
  0
VERTEX
  8
a_DXF_streams_nad27_edit
 10
553578.722
 20
3289436.83
 30
0.0
  0
SEQEND
  8
a_DXF_streams_nad27_edit
  0
POLYLINE
  8
a_DXF_streams_nad27_edit
 66
1
 40
47.9999845
 41
47.9999845
 62
5
 10
553598.904
 20
3289430.1
 30
0.0
  0
VERTEX
  8
a_DXF_streams_nad27_edit
 10
553598.904
 20
3289430.1
 30
0.0
  0
VERTEX
  8
a_DXF_streams_nad27_edit
 10
553726.725
 20
3289389.74
 30
0.0
  0
SEQEND
  8
a_DXF_streams_nad27_edit
  0
POLYLINE
  8
a_DXF_streams_nad27_edit
 66
1
 40
47.9999845
 41
47.9999845
 62
5
 10
553753.635
 20
3289362.83
 30
0.0
  0
VERTEX
  8
a_DXF_streams_nad27_edit
 10
553753.635
 20
3289362.83
 30
0.0
  0
VERTEX
  8
a_DXF_streams_nad27_edit
 10
553820.909
 20
3289302.28
 30
0.0
  0
SEQEND
  8
a_DXF_streams_nad27_edit
  0
POLYLINE
  8
a_DXF_streams_nad27_edit
 66
1
 40
47.9999845
 41
47.9999845
 62
5
 10
553834.364
 20
3289295.56
 30
0.0
  0
VERTEX
  8
a_DXF_streams_nad27_edit
 10
553834.364
 20
3289295.56
 30
0.0
  0
VERTEX
  8
a_DXF_streams_nad27_edit
 10
553894.91
 20
3289161.01
 30
0.0
  0
SEQEND
  8
a_DXF_streams_nad27_edit
  0
POLYLINE
  8
a_DXF_streams_nad27_edit
 66
1
 40
47.9999845
 41
47.9999845
 62
5
 10
553901.638
 20
3289154.28
 30
0.0
  0
VERTEX
  8
a_DXF_streams_nad27_edit
 10
553901.638
 20
3289154.28
 30
0.0
  0
VERTEX
  8
a_DXF_streams_nad27_edit
 10
553928.547
 20
3288972.64
 30
0.0
  0
SEQEND
  8
a_DXF_streams_nad27_edit
  0
POLYLINE
  8
a_DXF_streams_nad27_edit
 66
1
 40
47.9999845
 41
47.9999845
 62
5
 10
553915.093
 20
3288972.64
 30
0.0
  0
VERTEX
  8
a_DXF_streams_nad27_edit
 10
553915.093
 20
3288972.64
 30
0.0
  0
VERTEX
  8
a_DXF_streams_nad27_edit
 10
553861.273
 20
3288757.36
 30
0.0
  0
SEQEND
  8
a_DXF_streams_nad27_edit
  0
POLYLINE
  8
a_DXF_streams_nad27_edit
 66
1
 40
47.9999845
 41
47.9999845
 62
5
 10
553841.091
 20
3288737.18
 30
0.0
  0
VERTEX
  8
a_DXF_streams_nad27_edit
 10
553841.091
 20
3288737.18
 30
0.0
  0
VERTEX
  8
a_DXF_streams_nad27_edit
 10
553814.181
 20
3288602.63
 30
0.0
  0
SEQEND
  8
a_DXF_streams_nad27_edit
  0
POLYLINE
  8
a_DXF_streams_nad27_edit
 66
1
 40
47.9999845
 41
47.9999845
 62
5
 10
549508.638
 20
3288643
 30
0.0
  0
VERTEX
  8
a_DXF_streams_nad27_edit
 10
549508.638
 20
3288643
 30
0.0
  0
VERTEX
  8
a_DXF_streams_nad27_edit
 10
549550.884
 20
3288634.98
 30
0.0
  0
VERTEX
  8
a_DXF_streams_nad27_edit
 10
549586.706
 20
3288641.69
 30
0.0
  0
VERTEX
  8
a_DXF_streams_nad27_edit
 10
549615.801
 20
3288664.48
 30
0.0
  0
VERTEX
  8
a_DXF_streams_nad27_edit
 10
549639.499
 20
3288697.42
 30
0.0
  0
VERTEX
  8
a_DXF_streams_nad27_edit
 10
549674.406
 20
3288769.24
 30
0.0
  0
VERTEX
  8
a_DXF_streams_nad27_edit
 10
549682.978
 20
3288806.02
 30
0.0
  0
VERTEX
  8
a_DXF_streams_nad27_edit
 10
549683.808
 20
3288843.47
 30
0.0
  0
VERTEX
  8
a_DXF_streams_nad27_edit
 10
549673.119
 20
3288920.73
 30
0.0
  0
VERTEX
  8
a_DXF_streams_nad27_edit
 10
549661.363
 20
3289038.55
 30
0.0
  0
VERTEX
  8
a_DXF_streams_nad27_edit
 10
549647.307
 20
3289071.9
 30
0.0
  0
VERTEX
  8
a_DXF_streams_nad27_edit
 10
549601.167
 20
3289136.7
 30
0.0
  0
VERTEX
  8
a_DXF_streams_nad27_edit
 10
549582.222
 20
3289175.87
 30
0.0
  0
VERTEX
  8
a_DXF_streams_nad27_edit
 10
549581.536
 20
3289212.42
 30
0.0
  0
VERTEX
  8
a_DXF_streams_nad27_edit
 10
549607.706
 20
3289238.95
 30
0.0
  0
VERTEX
  8
a_DXF_streams_nad27_edit
 10
549709.011
 20
3289297.38
 30
0.0
  0
VERTEX
  8
a_DXF_streams_nad27_edit
 10
549783.277
 20
3289319.7
 30
0.0
  0
VERTEX
  8
a_DXF_streams_nad27_edit
 10
549937.889
 20
3289342.51
 30
0.0
  0
VERTEX
  8
a_DXF_streams_nad27_edit
 10
550040.103
 20
3289369.56
 30
0.0
  0
SEQEND
  8
a_DXF_streams_nad27_edit
  0
POLYLINE
  8
a_DXF_streams_nad27_edit
 66
1
 40
47.9999845
 41
47.9999845
 62
5
 10
539561.475
 20
3275630.8
 30
0.0
  0
VERTEX
  8
a_DXF_streams_nad27_edit
 10
539561.475
 20
3275630.8
 30
0.0
  0
VERTEX
  8
a_DXF_streams_nad27_edit
 10
539612.199
 20
3275612.01
 30
0.0
  0
VERTEX
  8
a_DXF_streams_nad27_edit
 10
539646.572
 20
3275589.46
 30
0.0
  0
VERTEX
  8
a_DXF_streams_nad27_edit
 10
539662.379
 20
3275562.39
 30
0.0
  0
VERTEX
  8
a_DXF_streams_nad27_edit
 10
539658.086
 20
3275530.28
 30
0.0
  0
VERTEX
  8
a_DXF_streams_nad27_edit
 10
539570.695
 20
3275395.44
 30
0.0
  0
VERTEX
  8
a_DXF_streams_nad27_edit
 10
539471.825
 20
3275276.83
 30
0.0
  0
VERTEX
  8
a_DXF_streams_nad27_edit
 10
539449.622
 20
3275245.09
 30
0.0
  0
VERTEX
  8
a_DXF_streams_nad27_edit
 10
539432.042
 20
3275211.07
 30
0.0
  0
VERTEX
  8
a_DXF_streams_nad27_edit
 10
539384.788
 20
3275062.97
 30
0.0
  0
VERTEX
  8
a_DXF_streams_nad27_edit
 10
539348.894
 20
3274994.04
 30
0.0
  0
VERTEX
  8
a_DXF_streams_nad27_edit
 10
539300.247
 20
3274933.01
 30
0.0
  0
VERTEX
  8
a_DXF_streams_nad27_edit
 10
539241.149
 20
3274882
 30
0.0
  0
VERTEX
  8
a_DXF_streams_nad27_edit
 10
539173.74
 20
3274844.45
 30
0.0
  0
VERTEX
  8
a_DXF_streams_nad27_edit
 10
539100.867
 20
3274816.5
 30
0.0
  0
VERTEX
  8
a_DXF_streams_nad27_edit
 10
539025.679
 20
3274793.23
 30
0.0
  0
VERTEX
  8
a_DXF_streams_nad27_edit
 10
538987.701
 20
3274788.26
 30
0.0
  0
VERTEX
  8
a_DXF_streams_nad27_edit
 10
538949.671
 20
3274790.63
 30
0.0
  0
VERTEX
  8
a_DXF_streams_nad27_edit
 10
538835.646
 20
3274818.41
 30
0.0
  0
VERTEX
  8
a_DXF_streams_nad27_edit
 10
538797.671
 20
3274822.31
 30
0.0
  0
VERTEX
  8
a_DXF_streams_nad27_edit
 10
538721.691
 20
3274811.5
 30
0.0
  0
VERTEX
  8
a_DXF_streams_nad27_edit
 10
538683.588
 20
3274801.64
 30
0.0
  0
VERTEX
  8
a_DXF_streams_nad27_edit
 10
538568.73
 20
3274783.33
 30
0.0
  0
SEQEND
  8
a_DXF_streams_nad27_edit
  0
ENDSEC
  0
EOF
