  0
SECTION
  2
HEADER
  9
$ACADVER
  1
AC1009
  9
$FILLMODE
 70
1
  9
$EXTMIN
 10
579509.28
 20
4542111.54
 30
0.0
  9
$EXTMAX
 10
747997.28
 20
4583739.54
 30
0.0
  9
$LIMMIN
 10
579509.28
 20
4542111.54
  9
$LIMMAX
 10
747997.28
 20
4583739.54
  0
ENDSEC
  0
SECTION
  2
TABLES
  0
TABLE
  2
LTYPE
 70
    11
  0
LTYPE
  2
CONTINUOUS
 70
    64
  3
Solid 
 72
    65
 73
     0
 40
0.0
  0
LTYPE
  2
DASHED
 70
    64
  3
__ __ __ __ __ __ __ __ __ __ __ __ __ __ __
 72
    65
 73
     2
 40
1.00
 49
0.8
 49
-0.2
  0
LTYPE
  2
DOT
 70
    64
  3
...............................................
 72
    65
 73
     8
 40
1.00
 49
0.05
 49
-0.20
 49
0.05
 49
-0.20
 49
0.05
 49
-0.20
 49
0.05
 49
-0.20
  0
LTYPE
  2
SHORT-DASHED
 70
    64
  3
_ _ _ _ _ _ _ _ _ _ _ _ _ _ _ _ _ _ _ _ _ _ _ 
 72
    65
 73
     4
 40
1.0
 49
.25
 49
-0.25
 49
0.25
 49
-0.25
  0
LTYPE
  2
LONG-SHORT-DASHED
 70
    64
  3
____ _ ____ _ ____ _ ____ _ ____ _ ____ _ ____
 72
    65
 73
     4
 40
1.0
 49
.5
 49
-0.125
 49
0.25
 49
-0.125
  0
LTYPE
  2
DASHDOT
 70
    64
  3
__ . __ . __ . __ . __ . __ . __ . __ . __ . __
 72
    65
 73
     4
 40
1.0
 49
0.65
 49
-0.15
 49
0.05
 49
-0.15
  0
LTYPE
  2
BORDER
 70
     0
  3
__ __ . __ __ . __ __ . __ __ . __ __ . __ __
 72
    65
 73
     6
 40
1.0
 49
0.325
 49
-0.10
 49
0.325
 49
-0.10
 49
0.05
 49
-0.10
  0
LTYPE
  2
DIVIDE
 70
     0
  3
__ . . __ . . __ . . __ . . __ . . __ . . __
 72
    65
 73
     6
 40
1.25
 49
0.5
 49
-0.25
 49
0.0
 49
-0.25
 49
0.0
 49
-0.25
  0
LTYPE
  2
CENTERX2
 70
    64
  3
________  __  ________  __  ________  __  _____
 72
    65
 73
     4
 40
4.0
 49
2.5
 49
-0.5
 49
0.5
 49
-0.5
  0
LTYPE
  2
HIDDEN
 70
    64
  3
_ _ _ _ _ _ _ _ _ _ _ _ _ _ _ _ _ _ _ _ _ _ _
 72
    65
 73
     2
 40
0.375
 49
0.25
 49
-0.125
  0
LTYPE
  2
PHANTOM
 70
    64
  3
_____ _ _ _____ _ _ _____ _ _ _____ _ _ ____
 72
    65
 73
     6
 40
2.5
 49
1.25
 49
-0.25
 49
0.25
 49
-0.25
 49
0.25
 49
-0.25
  0
ENDTAB
  0
TABLE
  2
LAYER
 70
2
  0
LAYER
  2
0
 70
64
 62
7
  6
CONTINUOUS
  0
LAYER
  2
TH_south_platte_nonumber
 70
64
 62
7
  6
CONTINUOUS
  0
ENDTAB
  0
TABLE
  2
STYLE
 70
1
  0
STYLE
  2
ARIAL
 70
64
  3
ARIAL.TTF
  4

 40
0
 41
3
 42
1
 50
0
 71
0
  0
ENDTAB
  0
ENDSEC
  0
SECTION
  2
ENTITIES
  0
POLYLINE
  8
TH_south_platte_nonumber
 66
1
 40
29.9999845
 41
29.9999845
 62
7
 10
658420.74
 20
4561662.18
 30
0.0
  0
VERTEX
  8
TH_south_platte_nonumber
 10
658420.74
 20
4561662.18
 30
0.0
  0
VERTEX
  8
TH_south_platte_nonumber
 10
658507.32
 20
4561594.47
 30
0.0
  0
VERTEX
  8
TH_south_platte_nonumber
 10
658600.05
 20
4561534.4
 30
0.0
  0
VERTEX
  8
TH_south_platte_nonumber
 10
658781.76
 20
4561419.6
 30
0.0
  0
VERTEX
  8
TH_south_platte_nonumber
 10
658966.59
 20
4561309.87
 30
0.0
  0
VERTEX
  8
TH_south_platte_nonumber
 10
659153.97
 20
4561195.22
 30
0.0
  0
VERTEX
  8
TH_south_platte_nonumber
 10
659344.97
 20
4561087.47
 30
0.0
  0
VERTEX
  8
TH_south_platte_nonumber
 10
659529.22
 20
4560980
 30
0.0
  0
VERTEX
  8
TH_south_platte_nonumber
 10
659702.86
 20
4560861.36
 30
0.0
  0
VERTEX
  8
TH_south_platte_nonumber
 10
659891.6
 20
4560756.32
 30
0.0
  0
VERTEX
  8
TH_south_platte_nonumber
 10
660070.25
 20
4560633.65
 30
0.0
  0
VERTEX
  8
TH_south_platte_nonumber
 10
660245.19
 20
4560517.91
 30
0.0
  0
VERTEX
  8
TH_south_platte_nonumber
 10
660334.47
 20
4560464.02
 30
0.0
  0
VERTEX
  8
TH_south_platte_nonumber
 10
660422.27
 20
4560416.76
 30
0.0
  0
VERTEX
  8
TH_south_platte_nonumber
 10
660602.8
 20
4560303.39
 30
0.0
  0
VERTEX
  8
TH_south_platte_nonumber
 10
660791.34
 20
4560196.72
 30
0.0
  0
VERTEX
  8
TH_south_platte_nonumber
 10
660885.37
 20
4560139.97
 30
0.0
  0
VERTEX
  8
TH_south_platte_nonumber
 10
661080.5
 20
4560030.13
 30
0.0
  0
VERTEX
  8
TH_south_platte_nonumber
 10
661274.64
 20
4559904.37
 30
0.0
  0
VERTEX
  8
TH_south_platte_nonumber
 10
661765.99
 20
4559613.04
 30
0.0
  0
VERTEX
  8
TH_south_platte_nonumber
 10
661905.1
 20
4559519
 30
0.0
  0
SEQEND
  8
TH_south_platte_nonumber
  0
POLYLINE
  8
TH_south_platte_nonumber
 66
1
 40
29.9999845
 41
29.9999845
 62
7
 10
738264.24
 20
4544628.56
 30
0.0
  0
VERTEX
  8
TH_south_platte_nonumber
 10
738264.24
 20
4544628.56
 30
0.0
  0
VERTEX
  8
TH_south_platte_nonumber
 10
738367.26
 20
4544651.74
 30
0.0
  0
VERTEX
  8
TH_south_platte_nonumber
 10
738467.4
 20
4544679.86
 30
0.0
  0
VERTEX
  8
TH_south_platte_nonumber
 10
738514.12
 20
4544696.9
 30
0.0
  0
VERTEX
  8
TH_south_platte_nonumber
 10
738558.47
 20
4544718.59
 30
0.0
  0
VERTEX
  8
TH_south_platte_nonumber
 10
738723.96
 20
4544833.37
 30
0.0
  0
VERTEX
  8
TH_south_platte_nonumber
 10
738807.78
 20
4544873.06
 30
0.0
  0
VERTEX
  8
TH_south_platte_nonumber
 10
738896.75
 20
4544909.15
 30
0.0
  0
VERTEX
  8
TH_south_platte_nonumber
 10
739076.03
 20
4544992.8
 30
0.0
  0
VERTEX
  8
TH_south_platte_nonumber
 10
739432.77
 20
4545166.43
 30
0.0
  0
VERTEX
  8
TH_south_platte_nonumber
 10
739526.28
 20
4545205.68
 30
0.0
  0
VERTEX
  8
TH_south_platte_nonumber
 10
739616.18
 20
4545249.56
 30
0.0
  0
VERTEX
  8
TH_south_platte_nonumber
 10
739702.77
 20
4545299.5
 30
0.0
  0
VERTEX
  8
TH_south_platte_nonumber
 10
739794.1
 20
4545346.39
 30
0.0
  0
VERTEX
  8
TH_south_platte_nonumber
 10
739888.03
 20
4545388.6
 30
0.0
  0
VERTEX
  8
TH_south_platte_nonumber
 10
740066.05
 20
4545481.95
 30
0.0
  0
VERTEX
  8
TH_south_platte_nonumber
 10
740345.34
 20
4545617.94
 30
0.0
  0
VERTEX
  8
TH_south_platte_nonumber
 10
740733.38
 20
4545787.32
 30
0.0
  0
VERTEX
  8
TH_south_platte_nonumber
 10
741111.95
 20
4545973.74
 30
0.0
  0
VERTEX
  8
TH_south_platte_nonumber
 10
741403.46
 20
4546112.76
 30
0.0
  0
VERTEX
  8
TH_south_platte_nonumber
 10
741600.6
 20
4546199.52
 30
0.0
  0
VERTEX
  8
TH_south_platte_nonumber
 10
742068.62
 20
4546444.35
 30
0.0
  0
VERTEX
  8
TH_south_platte_nonumber
 10
742452.65
 20
4546633.97
 30
0.0
  0
VERTEX
  8
TH_south_platte_nonumber
 10
742550.54
 20
4546678.4
 30
0.0
  0
VERTEX
  8
TH_south_platte_nonumber
 10
742734.32
 20
4546771.88
 30
0.0
  0
VERTEX
  8
TH_south_platte_nonumber
 10
743210.22
 20
4546996.68
 30
0.0
  0
VERTEX
  8
TH_south_platte_nonumber
 10
743980.3
 20
4547387.86
 30
0.0
  0
SEQEND
  8
TH_south_platte_nonumber
  0
POLYLINE
  8
TH_south_platte_nonumber
 66
1
 40
29.9999845
 41
29.9999845
 62
7
 10
747563.34
 20
4548647.16
 30
0.0
  0
VERTEX
  8
TH_south_platte_nonumber
 10
747563.34
 20
4548647.16
 30
0.0
  0
VERTEX
  8
TH_south_platte_nonumber
 10
747467.48
 20
4548599.91
 30
0.0
  0
VERTEX
  8
TH_south_platte_nonumber
 10
747370.46
 20
4548560.67
 30
0.0
  0
VERTEX
  8
TH_south_platte_nonumber
 10
747062.93
 20
4548434.69
 30
0.0
  0
VERTEX
  8
TH_south_platte_nonumber
 10
746863.52
 20
4548326.14
 30
0.0
  0
VERTEX
  8
TH_south_platte_nonumber
 10
746657.37
 20
4548235.66
 30
0.0
  0
VERTEX
  8
TH_south_platte_nonumber
 10
746557.86
 20
4548179.79
 30
0.0
  0
VERTEX
  8
TH_south_platte_nonumber
 10
746508.4
 20
4548155.63
 30
0.0
  0
VERTEX
  8
TH_south_platte_nonumber
 10
746459.06
 20
4548136.47
 30
0.0
  0
VERTEX
  8
TH_south_platte_nonumber
 10
746301.25
 20
4548092.26
 30
0.0
  0
VERTEX
  8
TH_south_platte_nonumber
 10
746248.27
 20
4548072.16
 30
0.0
  0
VERTEX
  8
TH_south_platte_nonumber
 10
746197.52
 20
4548047.68
 30
0.0
  0
VERTEX
  8
TH_south_platte_nonumber
 10
746052.94
 20
4547959.27
 30
0.0
  0
VERTEX
  8
TH_south_platte_nonumber
 10
745870.59
 20
4547839.18
 30
0.0
  0
VERTEX
  8
TH_south_platte_nonumber
 10
745773.88
 20
4547780.99
 30
0.0
  0
VERTEX
  8
TH_south_platte_nonumber
 10
745471.12
 20
4547626.81
 30
0.0
  0
VERTEX
  8
TH_south_platte_nonumber
 10
745366.38
 20
4547578.84
 30
0.0
  0
VERTEX
  8
TH_south_platte_nonumber
 10
745256.29
 20
4547534.95
 30
0.0
  0
VERTEX
  8
TH_south_platte_nonumber
 10
745044.4
 20
4547439.39
 30
0.0
  0
VERTEX
  8
TH_south_platte_nonumber
 10
744825.65
 20
4547334.31
 30
0.0
  0
VERTEX
  8
TH_south_platte_nonumber
 10
744390.97
 20
4547110.17
 30
0.0
  0
VERTEX
  8
TH_south_platte_nonumber
 10
744176.24
 20
4547010.97
 30
0.0
  0
VERTEX
  8
TH_south_platte_nonumber
 10
743743.17
 20
4546800.66
 30
0.0
  0
VERTEX
  8
TH_south_platte_nonumber
 10
743302.87
 20
4546594.87
 30
0.0
  0
VERTEX
  8
TH_south_platte_nonumber
 10
742875.83
 20
4546378.89
 30
0.0
  0
VERTEX
  8
TH_south_platte_nonumber
 10
742765.39
 20
4546321.32
 30
0.0
  0
VERTEX
  8
TH_south_platte_nonumber
 10
742653.41
 20
4546268.31
 30
0.0
  0
VERTEX
  8
TH_south_platte_nonumber
 10
742426.17
 20
4546164.46
 30
0.0
  0
VERTEX
  8
TH_south_platte_nonumber
 10
742196.8
 20
4546067.67
 30
0.0
  0
VERTEX
  8
TH_south_platte_nonumber
 10
742084.81
 20
4546014.8
 30
0.0
  0
VERTEX
  8
TH_south_platte_nonumber
 10
741976.48
 20
4545957.41
 30
0.0
  0
VERTEX
  8
TH_south_platte_nonumber
 10
741759.18
 20
4545843.88
 30
0.0
  0
VERTEX
  8
TH_south_platte_nonumber
 10
741544.3
 20
4545720.78
 30
0.0
  0
VERTEX
  8
TH_south_platte_nonumber
 10
741327.91
 20
4545597.73
 30
0.0
  0
VERTEX
  8
TH_south_platte_nonumber
 10
741215.97
 20
4545547.53
 30
0.0
  0
VERTEX
  8
TH_south_platte_nonumber
 10
740662.34
 20
4545317.76
 30
0.0
  0
VERTEX
  8
TH_south_platte_nonumber
 10
740440.48
 20
4545213.77
 30
0.0
  0
VERTEX
  8
TH_south_platte_nonumber
 10
740001.41
 20
4544996.21
 30
0.0
  0
VERTEX
  8
TH_south_platte_nonumber
 10
739773.91
 20
4544895.31
 30
0.0
  0
VERTEX
  8
TH_south_platte_nonumber
 10
739663.37
 20
4544839.84
 30
0.0
  0
VERTEX
  8
TH_south_platte_nonumber
 10
739436.99
 20
4544735.4
 30
0.0
  0
VERTEX
  8
TH_south_platte_nonumber
 10
739325.97
 20
4544677.2
 30
0.0
  0
VERTEX
  8
TH_south_platte_nonumber
 10
739109.43
 20
4544572.8
 30
0.0
  0
VERTEX
  8
TH_south_platte_nonumber
 10
738898.45
 20
4544463.55
 30
0.0
  0
VERTEX
  8
TH_south_platte_nonumber
 10
738797.21
 20
4544418.59
 30
0.0
  0
VERTEX
  8
TH_south_platte_nonumber
 10
738584.92
 20
4544311.98
 30
0.0
  0
VERTEX
  8
TH_south_platte_nonumber
 10
738479.09
 20
4544266.95
 30
0.0
  0
VERTEX
  8
TH_south_platte_nonumber
 10
738269.46
 20
4544165.15
 30
0.0
  0
VERTEX
  8
TH_south_platte_nonumber
 10
738062.79
 20
4544073.09
 30
0.0
  0
VERTEX
  8
TH_south_platte_nonumber
 10
737762.74
 20
4543928.75
 30
0.0
  0
VERTEX
  8
TH_south_platte_nonumber
 10
737568.32
 20
4543827.43
 30
0.0
  0
VERTEX
  8
TH_south_platte_nonumber
 10
737267.43
 20
4543689.91
 30
0.0
  0
VERTEX
  8
TH_south_platte_nonumber
 10
737064.43
 20
4543591.92
 30
0.0
  0
VERTEX
  8
TH_south_platte_nonumber
 10
736965.86
 20
4543536.74
 30
0.0
  0
SEQEND
  8
TH_south_platte_nonumber
  0
POLYLINE
  8
TH_south_platte_nonumber
 66
1
 40
29.9999845
 41
29.9999845
 62
7
 10
736763.09
 20
4542998.3
 30
0.0
  0
VERTEX
  8
TH_south_platte_nonumber
 10
736763.09
 20
4542998.3
 30
0.0
  0
VERTEX
  8
TH_south_platte_nonumber
 10
736861.23
 20
4543055.73
 30
0.0
  0
VERTEX
  8
TH_south_platte_nonumber
 10
736960.77
 20
4543104.48
 30
0.0
  0
VERTEX
  8
TH_south_platte_nonumber
 10
737066.96
 20
4543156.14
 30
0.0
  0
VERTEX
  8
TH_south_platte_nonumber
 10
737166.47
 20
4543214.43
 30
0.0
  0
VERTEX
  8
TH_south_platte_nonumber
 10
737263.61
 20
4543266.06
 30
0.0
  0
VERTEX
  8
TH_south_platte_nonumber
 10
737366.95
 20
4543316.28
 30
0.0
  0
VERTEX
  8
TH_south_platte_nonumber
 10
737563.27
 20
4543419.37
 30
0.0
  0
VERTEX
  8
TH_south_platte_nonumber
 10
737767.47
 20
4543513.21
 30
0.0
  0
VERTEX
  8
TH_south_platte_nonumber
 10
737967.99
 20
4543613.4
 30
0.0
  0
VERTEX
  8
TH_south_platte_nonumber
 10
738175.8
 20
4543709.88
 30
0.0
  0
VERTEX
  8
TH_south_platte_nonumber
 10
738491.12
 20
4543849.24
 30
0.0
  0
VERTEX
  8
TH_south_platte_nonumber
 10
738698.43
 20
4543951.41
 30
0.0
  0
VERTEX
  8
TH_south_platte_nonumber
 10
738909.19
 20
4544038.51
 30
0.0
  0
VERTEX
  8
TH_south_platte_nonumber
 10
739219.68
 20
4544186.34
 30
0.0
  0
VERTEX
  8
TH_south_platte_nonumber
 10
739322.15
 20
4544237.69
 30
0.0
  0
VERTEX
  8
TH_south_platte_nonumber
 10
739424.81
 20
4544281.46
 30
0.0
  0
VERTEX
  8
TH_south_platte_nonumber
 10
739527.08
 20
4544323.64
 30
0.0
  0
VERTEX
  8
TH_south_platte_nonumber
 10
739629.32
 20
4544373.12
 30
0.0
  0
VERTEX
  8
TH_south_platte_nonumber
 10
739831.66
 20
4544467.77
 30
0.0
  0
VERTEX
  8
TH_south_platte_nonumber
 10
740024.4
 20
4544573.65
 30
0.0
  0
VERTEX
  8
TH_south_platte_nonumber
 10
740216.91
 20
4544670.54
 30
0.0
  0
VERTEX
  8
TH_south_platte_nonumber
 10
740308.1
 20
4544724.23
 30
0.0
  0
VERTEX
  8
TH_south_platte_nonumber
 10
740402.69
 20
4544773.92
 30
0.0
  0
VERTEX
  8
TH_south_platte_nonumber
 10
740498.73
 20
4544819.27
 30
0.0
  0
VERTEX
  8
TH_south_platte_nonumber
 10
740687.71
 20
4544922.44
 30
0.0
  0
VERTEX
  8
TH_south_platte_nonumber
 10
740989.26
 20
4545073.17
 30
0.0
  0
VERTEX
  8
TH_south_platte_nonumber
 10
741192.36
 20
4545156.49
 30
0.0
  0
VERTEX
  8
TH_south_platte_nonumber
 10
741400.95
 20
4545252.42
 30
0.0
  0
VERTEX
  8
TH_south_platte_nonumber
 10
741720.71
 20
4545396
 30
0.0
  0
VERTEX
  8
TH_south_platte_nonumber
 10
741831.03
 20
4545437.2
 30
0.0
  0
VERTEX
  8
TH_south_platte_nonumber
 10
741941.23
 20
4545483.32
 30
0.0
  0
VERTEX
  8
TH_south_platte_nonumber
 10
742253.1
 20
4545632.07
 30
0.0
  0
VERTEX
  8
TH_south_platte_nonumber
 10
742665.47
 20
4545837.11
 30
0.0
  0
VERTEX
  8
TH_south_platte_nonumber
 10
743052.62
 20
4546046.14
 30
0.0
  0
VERTEX
  8
TH_south_platte_nonumber
 10
743251.57
 20
4546137.35
 30
0.0
  0
VERTEX
  8
TH_south_platte_nonumber
 10
743444.32
 20
4546236.35
 30
0.0
  0
VERTEX
  8
TH_south_platte_nonumber
 10
743731.52
 20
4546369.39
 30
0.0
  0
VERTEX
  8
TH_south_platte_nonumber
 10
744011.32
 20
4546493.77
 30
0.0
  0
VERTEX
  8
TH_south_platte_nonumber
 10
744300.12
 20
4546645.63
 30
0.0
  0
SEQEND
  8
TH_south_platte_nonumber
  0
POLYLINE
  8
TH_south_platte_nonumber
 66
1
 40
29.9999845
 41
29.9999845
 62
7
 10
744311.75
 20
4546642.23
 30
0.0
  0
VERTEX
  8
TH_south_platte_nonumber
 10
744311.75
 20
4546642.23
 30
0.0
  0
VERTEX
  8
TH_south_platte_nonumber
 10
744403.02
 20
4546694.74
 30
0.0
  0
VERTEX
  8
TH_south_platte_nonumber
 10
744495.73
 20
4546738.76
 30
0.0
  0
VERTEX
  8
TH_south_platte_nonumber
 10
744696.3
 20
4546816.13
 30
0.0
  0
VERTEX
  8
TH_south_platte_nonumber
 10
744744.18
 20
4546840.73
 30
0.0
  0
VERTEX
  8
TH_south_platte_nonumber
 10
744790.68
 20
4546870.44
 30
0.0
  0
VERTEX
  8
TH_south_platte_nonumber
 10
744922.58
 20
4546965.79
 30
0.0
  0
VERTEX
  8
TH_south_platte_nonumber
 10
744969.75
 20
4546992.14
 30
0.0
  0
VERTEX
  8
TH_south_platte_nonumber
 10
745069.58
 20
4547035.84
 30
0.0
  0
VERTEX
  8
TH_south_platte_nonumber
 10
745375.54
 20
4547150.18
 30
0.0
  0
VERTEX
  8
TH_south_platte_nonumber
 10
745572.59
 20
4547259.49
 30
0.0
  0
VERTEX
  8
TH_south_platte_nonumber
 10
745675.52
 20
4547308.43
 30
0.0
  0
VERTEX
  8
TH_south_platte_nonumber
 10
745879.78
 20
4547412.66
 30
0.0
  0
VERTEX
  8
TH_south_platte_nonumber
 10
746086.76
 20
4547506.65
 30
0.0
  0
VERTEX
  8
TH_south_platte_nonumber
 10
746283.46
 20
4547603.83
 30
0.0
  0
VERTEX
  8
TH_south_platte_nonumber
 10
746673.01
 20
4547792
 30
0.0
  0
VERTEX
  8
TH_south_platte_nonumber
 10
747073.65
 20
4547975.99
 30
0.0
  0
VERTEX
  8
TH_south_platte_nonumber
 10
747269
 20
4548068.67
 30
0.0
  0
VERTEX
  8
TH_south_platte_nonumber
 10
747477.9
 20
4548160.57
 30
0.0
  0
VERTEX
  8
TH_south_platte_nonumber
 10
747735.85
 20
4548289.23
 30
0.0
  0
SEQEND
  8
TH_south_platte_nonumber
  0
POLYLINE
  8
TH_south_platte_nonumber
 66
1
 40
29.9999845
 41
29.9999845
 62
7
 10
747909.63
 20
4547928.27
 30
0.0
  0
VERTEX
  8
TH_south_platte_nonumber
 10
747909.63
 20
4547928.27
 30
0.0
  0
VERTEX
  8
TH_south_platte_nonumber
 10
747702.39
 20
4547829.8
 30
0.0
  0
VERTEX
  8
TH_south_platte_nonumber
 10
747502.64
 20
4547726.17
 30
0.0
  0
VERTEX
  8
TH_south_platte_nonumber
 10
747201.35
 20
4547584.97
 30
0.0
  0
VERTEX
  8
TH_south_platte_nonumber
 10
747005.44
 20
4547502.56
 30
0.0
  0
VERTEX
  8
TH_south_platte_nonumber
 10
746909.75
 20
4547455.99
 30
0.0
  0
VERTEX
  8
TH_south_platte_nonumber
 10
746719.13
 20
4547373.35
 30
0.0
  0
VERTEX
  8
TH_south_platte_nonumber
 10
746530.11
 20
4547275.62
 30
0.0
  0
VERTEX
  8
TH_south_platte_nonumber
 10
746338.84
 20
4547184.02
 30
0.0
  0
VERTEX
  8
TH_south_platte_nonumber
 10
746247.05
 20
4547135.08
 30
0.0
  0
VERTEX
  8
TH_south_platte_nonumber
 10
746152.47
 20
4547089.75
 30
0.0
  0
VERTEX
  8
TH_south_platte_nonumber
 10
746054.02
 20
4547044.92
 30
0.0
  0
VERTEX
  8
TH_south_platte_nonumber
 10
745957.11
 20
4546994.2
 30
0.0
  0
VERTEX
  8
TH_south_platte_nonumber
 10
745861.1
 20
4546944.64
 30
0.0
  0
VERTEX
  8
TH_south_platte_nonumber
 10
745764.78
 20
4546901.28
 30
0.0
  0
VERTEX
  8
TH_south_platte_nonumber
 10
745574.75
 20
4546822.83
 30
0.0
  0
VERTEX
  8
TH_south_platte_nonumber
 10
745380.71
 20
4546761.93
 30
0.0
  0
VERTEX
  8
TH_south_platte_nonumber
 10
745179.86
 20
4546700.36
 30
0.0
  0
VERTEX
  8
TH_south_platte_nonumber
 10
745076.55
 20
4546663.45
 30
0.0
  0
VERTEX
  8
TH_south_platte_nonumber
 10
744978.39
 20
4546620.41
 30
0.0
  0
VERTEX
  8
TH_south_platte_nonumber
 10
744781.48
 20
4546525.63
 30
0.0
  0
VERTEX
  8
TH_south_platte_nonumber
 10
744597.09
 20
4546413.37
 30
0.0
  0
VERTEX
  8
TH_south_platte_nonumber
 10
744407.47
 20
4546308.29
 30
0.0
  0
VERTEX
  8
TH_south_platte_nonumber
 10
744132.29
 20
4546134.03
 30
0.0
  0
VERTEX
  8
TH_south_platte_nonumber
 10
743950.61
 20
4546012.3
 30
0.0
  0
VERTEX
  8
TH_south_platte_nonumber
 10
743768.01
 20
4545909.17
 30
0.0
  0
VERTEX
  8
TH_south_platte_nonumber
 10
743487.45
 20
4545772.82
 30
0.0
  0
VERTEX
  8
TH_south_platte_nonumber
 10
743297.32
 20
4545687.24
 30
0.0
  0
VERTEX
  8
TH_south_platte_nonumber
 10
743096.5
 20
4545605.07
 30
0.0
  0
VERTEX
  8
TH_south_platte_nonumber
 10
742313.84
 20
4545236.88
 30
0.0
  0
VERTEX
  8
TH_south_platte_nonumber
 10
742028.01
 20
4545095.78
 30
0.0
  0
VERTEX
  8
TH_south_platte_nonumber
 10
741833.22
 20
4545012.92
 30
0.0
  0
VERTEX
  8
TH_south_platte_nonumber
 10
741539.53
 20
4544860.49
 30
0.0
  0
VERTEX
  8
TH_south_platte_nonumber
 10
741351.54
 20
4544747.25
 30
0.0
  0
VERTEX
  8
TH_south_platte_nonumber
 10
741153.53
 20
4544650.06
 30
0.0
  0
VERTEX
  8
TH_south_platte_nonumber
 10
741053.64
 20
4544596.36
 30
0.0
  0
VERTEX
  8
TH_south_platte_nonumber
 10
740855.15
 20
4544498.54
 30
0.0
  0
VERTEX
  8
TH_south_platte_nonumber
 10
740754.84
 20
4544443.16
 30
0.0
  0
VERTEX
  8
TH_south_platte_nonumber
 10
740452.38
 20
4544295.43
 30
0.0
  0
VERTEX
  8
TH_south_platte_nonumber
 10
740347.74
 20
4544251.27
 30
0.0
  0
VERTEX
  8
TH_south_platte_nonumber
 10
740145.38
 20
4544173.96
 30
0.0
  0
VERTEX
  8
TH_south_platte_nonumber
 10
739944.03
 20
4544102.12
 30
0.0
  0
VERTEX
  8
TH_south_platte_nonumber
 10
739847.46
 20
4544059.2
 30
0.0
  0
VERTEX
  8
TH_south_platte_nonumber
 10
739750.15
 20
4544006.23
 30
0.0
  0
VERTEX
  8
TH_south_platte_nonumber
 10
739549.61
 20
4543906.98
 30
0.0
  0
VERTEX
  8
TH_south_platte_nonumber
 10
739357.2
 20
4543801.42
 30
0.0
  0
VERTEX
  8
TH_south_platte_nonumber
 10
739255.92
 20
4543758.38
 30
0.0
  0
VERTEX
  8
TH_south_platte_nonumber
 10
739061.79
 20
4543663.33
 30
0.0
  0
VERTEX
  8
TH_south_platte_nonumber
 10
738960.08
 20
4543617.89
 30
0.0
  0
VERTEX
  8
TH_south_platte_nonumber
 10
738862.97
 20
4543569.62
 30
0.0
  0
VERTEX
  8
TH_south_platte_nonumber
 10
738768.06
 20
4543514.68
 30
0.0
  0
VERTEX
  8
TH_south_platte_nonumber
 10
738575.52
 20
4543425.8
 30
0.0
  0
VERTEX
  8
TH_south_platte_nonumber
 10
738386.71
 20
4543324.11
 30
0.0
  0
VERTEX
  8
TH_south_platte_nonumber
 10
738090
 20
4543183.57
 30
0.0
  0
VERTEX
  8
TH_south_platte_nonumber
 10
737890.01
 20
4543108.84
 30
0.0
  0
VERTEX
  8
TH_south_platte_nonumber
 10
737796.55
 20
4543058.43
 30
0.0
  0
VERTEX
  8
TH_south_platte_nonumber
 10
737604.54
 20
4542973.98
 30
0.0
  0
VERTEX
  8
TH_south_platte_nonumber
 10
737417.95
 20
4542869.96
 30
0.0
  0
VERTEX
  8
TH_south_platte_nonumber
 10
737340.87
 20
4542832.12
 30
0.0
  0
SEQEND
  8
TH_south_platte_nonumber
  0
POLYLINE
  8
TH_south_platte_nonumber
 66
1
 40
29.9999845
 41
29.9999845
 62
7
 10
738186.67
 20
4542813.07
 30
0.0
  0
VERTEX
  8
TH_south_platte_nonumber
 10
738186.67
 20
4542813.07
 30
0.0
  0
VERTEX
  8
TH_south_platte_nonumber
 10
738376.53
 20
4542912.23
 30
0.0
  0
VERTEX
  8
TH_south_platte_nonumber
 10
738473.52
 20
4542955.24
 30
0.0
  0
VERTEX
  8
TH_south_platte_nonumber
 10
738572.84
 20
4542993.05
 30
0.0
  0
VERTEX
  8
TH_south_platte_nonumber
 10
738753.4
 20
4543079.47
 30
0.0
  0
VERTEX
  8
TH_south_platte_nonumber
 10
739233.66
 20
4543294.61
 30
0.0
  0
VERTEX
  8
TH_south_platte_nonumber
 10
739328.91
 20
4543346.18
 30
0.0
  0
VERTEX
  8
TH_south_platte_nonumber
 10
739429.28
 20
4543394.49
 30
0.0
  0
VERTEX
  8
TH_south_platte_nonumber
 10
739528.19
 20
4543436.95
 30
0.0
  0
VERTEX
  8
TH_south_platte_nonumber
 10
739720.39
 20
4543533.52
 30
0.0
  0
VERTEX
  8
TH_south_platte_nonumber
 10
739817.88
 20
4543577.79
 30
0.0
  0
VERTEX
  8
TH_south_platte_nonumber
 10
740010.52
 20
4543678.37
 30
0.0
  0
VERTEX
  8
TH_south_platte_nonumber
 10
740110.16
 20
4543721.93
 30
0.0
  0
VERTEX
  8
TH_south_platte_nonumber
 10
740203.59
 20
4543767.86
 30
0.0
  0
VERTEX
  8
TH_south_platte_nonumber
 10
740300.33
 20
4543822.15
 30
0.0
  0
VERTEX
  8
TH_south_platte_nonumber
 10
740403.71
 20
4543873.97
 30
0.0
  0
VERTEX
  8
TH_south_platte_nonumber
 10
740509.61
 20
4543921.41
 30
0.0
  0
VERTEX
  8
TH_south_platte_nonumber
 10
740722.69
 20
4544031.64
 30
0.0
  0
VERTEX
  8
TH_south_platte_nonumber
 10
740936.3
 20
4544119.57
 30
0.0
  0
VERTEX
  8
TH_south_platte_nonumber
 10
741144.54
 20
4544214.99
 30
0.0
  0
VERTEX
  8
TH_south_platte_nonumber
 10
741344.79
 20
4544327.62
 30
0.0
  0
VERTEX
  8
TH_south_platte_nonumber
 10
741448.58
 20
4544378.61
 30
0.0
  0
VERTEX
  8
TH_south_platte_nonumber
 10
741647.33
 20
4544489.13
 30
0.0
  0
VERTEX
  8
TH_south_platte_nonumber
 10
741751.21
 20
4544534.64
 30
0.0
  0
VERTEX
  8
TH_south_platte_nonumber
 10
741859.31
 20
4544577.06
 30
0.0
  0
VERTEX
  8
TH_south_platte_nonumber
 10
742166.02
 20
4544708.58
 30
0.0
  0
VERTEX
  8
TH_south_platte_nonumber
 10
742363.23
 20
4544820.64
 30
0.0
  0
VERTEX
  8
TH_south_platte_nonumber
 10
742464.4
 20
4544873.88
 30
0.0
  0
VERTEX
  8
TH_south_platte_nonumber
 10
742511.78
 20
4544905.72
 30
0.0
  0
VERTEX
  8
TH_south_platte_nonumber
 10
742730.23
 20
4545084.9
 30
0.0
  0
VERTEX
  8
TH_south_platte_nonumber
 10
742776.92
 20
4545115.26
 30
0.0
  0
VERTEX
  8
TH_south_platte_nonumber
 10
742827.34
 20
4545141.38
 30
0.0
  0
VERTEX
  8
TH_south_platte_nonumber
 10
742930.41
 20
4545183.72
 30
0.0
  0
VERTEX
  8
TH_south_platte_nonumber
 10
743120.97
 20
4545272.21
 30
0.0
  0
VERTEX
  8
TH_south_platte_nonumber
 10
743268.3
 20
4545312.91
 30
0.0
  0
VERTEX
  8
TH_south_platte_nonumber
 10
743314.85
 20
4545330.04
 30
0.0
  0
VERTEX
  8
TH_south_platte_nonumber
 10
743408.13
 20
4545377.29
 30
0.0
  0
VERTEX
  8
TH_south_platte_nonumber
 10
743595.08
 20
4545455.28
 30
0.0
  0
VERTEX
  8
TH_south_platte_nonumber
 10
743735.99
 20
4545527.13
 30
0.0
  0
VERTEX
  8
TH_south_platte_nonumber
 10
743886.97
 20
4545574.81
 30
0.0
  0
VERTEX
  8
TH_south_platte_nonumber
 10
744041.65
 20
4545647.48
 30
0.0
  0
VERTEX
  8
TH_south_platte_nonumber
 10
744094.31
 20
4545666.37
 30
0.0
  0
VERTEX
  8
TH_south_platte_nonumber
 10
744198.68
 20
4545694.74
 30
0.0
  0
VERTEX
  8
TH_south_platte_nonumber
 10
744251.1
 20
4545713.81
 30
0.0
  0
VERTEX
  8
TH_south_platte_nonumber
 10
744301.28
 20
4545739.02
 30
0.0
  0
VERTEX
  8
TH_south_platte_nonumber
 10
744394.91
 20
4545794.15
 30
0.0
  0
VERTEX
  8
TH_south_platte_nonumber
 10
744687.87
 20
4545939.3
 30
0.0
  0
VERTEX
  8
TH_south_platte_nonumber
 10
744883.12
 20
4546026.24
 30
0.0
  0
VERTEX
  8
TH_south_platte_nonumber
 10
745075.9
 20
4546135.01
 30
0.0
  0
VERTEX
  8
TH_south_platte_nonumber
 10
745287.57
 20
4546222.45
 30
0.0
  0
VERTEX
  8
TH_south_platte_nonumber
 10
745497.63
 20
4546324.58
 30
0.0
  0
VERTEX
  8
TH_south_platte_nonumber
 10
745604.46
 20
4546365.26
 30
0.0
  0
VERTEX
  8
TH_south_platte_nonumber
 10
745810.84
 20
4546467.67
 30
0.0
  0
VERTEX
  8
TH_south_platte_nonumber
 10
745915.32
 20
4546512.97
 30
0.0
  0
VERTEX
  8
TH_south_platte_nonumber
 10
746012.98
 20
4546564.15
 30
0.0
  0
VERTEX
  8
TH_south_platte_nonumber
 10
746114.92
 20
4546623
 30
0.0
  0
VERTEX
  8
TH_south_platte_nonumber
 10
746169.16
 20
4546648.25
 30
0.0
  0
VERTEX
  8
TH_south_platte_nonumber
 10
746320.5
 20
4546707.98
 30
0.0
  0
VERTEX
  8
TH_south_platte_nonumber
 10
746419.82
 20
4546761.1
 30
0.0
  0
VERTEX
  8
TH_south_platte_nonumber
 10
746616.14
 20
4546858.82
 30
0.0
  0
VERTEX
  8
TH_south_platte_nonumber
 10
746819.67
 20
4546964.78
 30
0.0
  0
VERTEX
  8
TH_south_platte_nonumber
 10
747224.51
 20
4547158.23
 30
0.0
  0
VERTEX
  8
TH_south_platte_nonumber
 10
747648.15
 20
4547367.07
 30
0.0
  0
VERTEX
  8
TH_south_platte_nonumber
 10
747929.41
 20
4547494.65
 30
0.0
  0
SEQEND
  8
TH_south_platte_nonumber
  0
POLYLINE
  8
TH_south_platte_nonumber
 66
1
 40
29.9999845
 41
29.9999845
 62
7
 10
747941.1
 20
4547055.66
 30
0.0
  0
VERTEX
  8
TH_south_platte_nonumber
 10
747941.1
 20
4547055.66
 30
0.0
  0
VERTEX
  8
TH_south_platte_nonumber
 10
747580.52
 20
4546879.28
 30
0.0
  0
VERTEX
  8
TH_south_platte_nonumber
 10
747397.49
 20
4546798.87
 30
0.0
  0
VERTEX
  8
TH_south_platte_nonumber
 10
747116.33
 20
4546663.22
 30
0.0
  0
VERTEX
  8
TH_south_platte_nonumber
 10
746924.96
 20
4546557.88
 30
0.0
  0
VERTEX
  8
TH_south_platte_nonumber
 10
746827.92
 20
4546509.6
 30
0.0
  0
VERTEX
  8
TH_south_platte_nonumber
 10
746440.29
 20
4546331.28
 30
0.0
  0
VERTEX
  8
TH_south_platte_nonumber
 10
746246.39
 20
4546233.05
 30
0.0
  0
VERTEX
  8
TH_south_platte_nonumber
 10
746048.3
 20
4546144.68
 30
0.0
  0
VERTEX
  8
TH_south_platte_nonumber
 10
745952.04
 20
4546094.22
 30
0.0
  0
VERTEX
  8
TH_south_platte_nonumber
 10
745855.54
 20
4546052.81
 30
0.0
  0
VERTEX
  8
TH_south_platte_nonumber
 10
745760.13
 20
4546011.78
 30
0.0
  0
VERTEX
  8
TH_south_platte_nonumber
 10
745666.67
 20
4545960.5
 30
0.0
  0
VERTEX
  8
TH_south_platte_nonumber
 10
745477.32
 20
4545868.67
 30
0.0
  0
VERTEX
  8
TH_south_platte_nonumber
 10
745293.14
 20
4545767.14
 30
0.0
  0
VERTEX
  8
TH_south_platte_nonumber
 10
745196.93
 20
4545724.52
 30
0.0
  0
VERTEX
  8
TH_south_platte_nonumber
 10
745104.3
 20
4545677.55
 30
0.0
  0
VERTEX
  8
TH_south_platte_nonumber
 10
745008.26
 20
4545628.43
 30
0.0
  0
VERTEX
  8
TH_south_platte_nonumber
 10
744913.43
 20
4545590
 30
0.0
  0
VERTEX
  8
TH_south_platte_nonumber
 10
744824.66
 20
4545549.23
 30
0.0
  0
VERTEX
  8
TH_south_platte_nonumber
 10
744730.21
 20
4545497.48
 30
0.0
  0
VERTEX
  8
TH_south_platte_nonumber
 10
744536.65
 20
4545411
 30
0.0
  0
VERTEX
  8
TH_south_platte_nonumber
 10
744342.92
 20
4545307.7
 30
0.0
  0
VERTEX
  8
TH_south_platte_nonumber
 10
743859.99
 20
4545080.48
 30
0.0
  0
VERTEX
  8
TH_south_platte_nonumber
 10
743673.65
 20
4544987.73
 30
0.0
  0
VERTEX
  8
TH_south_platte_nonumber
 10
743472.74
 20
4544899.52
 30
0.0
  0
VERTEX
  8
TH_south_platte_nonumber
 10
743373.54
 20
4544847.49
 30
0.0
  0
VERTEX
  8
TH_south_platte_nonumber
 10
743267.19
 20
4544798.86
 30
0.0
  0
VERTEX
  8
TH_south_platte_nonumber
 10
743159.69
 20
4544759.21
 30
0.0
  0
VERTEX
  8
TH_south_platte_nonumber
 10
743055.91
 20
4544710.11
 30
0.0
  0
VERTEX
  8
TH_south_platte_nonumber
 10
742954.07
 20
4544654.43
 30
0.0
  0
VERTEX
  8
TH_south_platte_nonumber
 10
742744.76
 20
4544553.76
 30
0.0
  0
VERTEX
  8
TH_south_platte_nonumber
 10
742538.84
 20
4544447.79
 30
0.0
  0
VERTEX
  8
TH_south_platte_nonumber
 10
742230.34
 20
4544295
 30
0.0
  0
VERTEX
  8
TH_south_platte_nonumber
 10
741704.89
 20
4544055.83
 30
0.0
  0
VERTEX
  8
TH_south_platte_nonumber
 10
741192.89
 20
4543793.2
 30
0.0
  0
VERTEX
  8
TH_south_platte_nonumber
 10
741088.87
 20
4543743.19
 30
0.0
  0
VERTEX
  8
TH_south_platte_nonumber
 10
740882.54
 20
4543636.6
 30
0.0
  0
VERTEX
  8
TH_south_platte_nonumber
 10
740466.49
 20
4543445.96
 30
0.0
  0
VERTEX
  8
TH_south_platte_nonumber
 10
740362.88
 20
4543405.44
 30
0.0
  0
VERTEX
  8
TH_south_platte_nonumber
 10
740263.25
 20
4543361.88
 30
0.0
  0
VERTEX
  8
TH_south_platte_nonumber
 10
739663.18
 20
4543066.4
 30
0.0
  0
VERTEX
  8
TH_south_platte_nonumber
 10
739454.57
 20
4542971.19
 30
0.0
  0
VERTEX
  8
TH_south_platte_nonumber
 10
739207.55
 20
4542850.62
 30
0.0
  0
SEQEND
  8
TH_south_platte_nonumber
  0
POLYLINE
  8
TH_south_platte_nonumber
 66
1
 40
29.9999845
 41
29.9999845
 62
7
 10
740188.19
 20
4542886.88
 30
0.0
  0
VERTEX
  8
TH_south_platte_nonumber
 10
740188.19
 20
4542886.88
 30
0.0
  0
VERTEX
  8
TH_south_platte_nonumber
 10
740419.22
 20
4542987.12
 30
0.0
  0
VERTEX
  8
TH_south_platte_nonumber
 10
740523.09
 20
4543038.32
 30
0.0
  0
VERTEX
  8
TH_south_platte_nonumber
 10
740625.39
 20
4543093.91
 30
0.0
  0
VERTEX
  8
TH_south_platte_nonumber
 10
740834.06
 20
4543188.1
 30
0.0
  0
VERTEX
  8
TH_south_platte_nonumber
 10
741247.27
 20
4543388.16
 30
0.0
  0
VERTEX
  8
TH_south_platte_nonumber
 10
741654.12
 20
4543593.63
 30
0.0
  0
VERTEX
  8
TH_south_platte_nonumber
 10
742056.58
 20
4543786.14
 30
0.0
  0
VERTEX
  8
TH_south_platte_nonumber
 10
742465.29
 20
4543986.44
 30
0.0
  0
VERTEX
  8
TH_south_platte_nonumber
 10
743328.04
 20
4544390.34
 30
0.0
  0
VERTEX
  8
TH_south_platte_nonumber
 10
743533.9
 20
4544493.7
 30
0.0
  0
VERTEX
  8
TH_south_platte_nonumber
 10
744056.5
 20
4544733.6
 30
0.0
  0
VERTEX
  8
TH_south_platte_nonumber
 10
744266.41
 20
4544841.44
 30
0.0
  0
VERTEX
  8
TH_south_platte_nonumber
 10
744581.99
 20
4544996.61
 30
0.0
  0
VERTEX
  8
TH_south_platte_nonumber
 10
745001.47
 20
4545196.53
 30
0.0
  0
VERTEX
  8
TH_south_platte_nonumber
 10
745624.4
 20
4545504.79
 30
0.0
  0
VERTEX
  8
TH_south_platte_nonumber
 10
745840.63
 20
4545603.88
 30
0.0
  0
VERTEX
  8
TH_south_platte_nonumber
 10
746169.92
 20
4545760.62
 30
0.0
  0
VERTEX
  8
TH_south_platte_nonumber
 10
746275.43
 20
4545816.89
 30
0.0
  0
VERTEX
  8
TH_south_platte_nonumber
 10
746702.31
 20
4546019.92
 30
0.0
  0
VERTEX
  8
TH_south_platte_nonumber
 10
746910.22
 20
4546112.14
 30
0.0
  0
VERTEX
  8
TH_south_platte_nonumber
 10
747110.32
 20
4546209.4
 30
0.0
  0
VERTEX
  8
TH_south_platte_nonumber
 10
747213.25
 20
4546255.1
 30
0.0
  0
VERTEX
  8
TH_south_platte_nonumber
 10
747408.46
 20
4546360.86
 30
0.0
  0
VERTEX
  8
TH_south_platte_nonumber
 10
747608.75
 20
4546457.06
 30
0.0
  0
VERTEX
  8
TH_south_platte_nonumber
 10
747705.61
 20
4546514.26
 30
0.0
  0
VERTEX
  8
TH_south_platte_nonumber
 10
747809.07
 20
4546564.73
 30
0.0
  0
VERTEX
  8
TH_south_platte_nonumber
 10
747954.31
 20
4546628.94
 30
0.0
  0
SEQEND
  8
TH_south_platte_nonumber
  0
POLYLINE
  8
TH_south_platte_nonumber
 66
1
 40
29.9999845
 41
29.9999845
 62
7
 10
747968.15
 20
4546194.96
 30
0.0
  0
VERTEX
  8
TH_south_platte_nonumber
 10
747968.15
 20
4546194.96
 30
0.0
  0
VERTEX
  8
TH_south_platte_nonumber
 10
747901.89
 20
4546144.15
 30
0.0
  0
VERTEX
  8
TH_south_platte_nonumber
 10
747859.62
 20
4546117.79
 30
0.0
  0
VERTEX
  8
TH_south_platte_nonumber
 10
747815.68
 20
4546096
 30
0.0
  0
VERTEX
  8
TH_south_platte_nonumber
 10
747774.1
 20
4546081.28
 30
0.0
  0
VERTEX
  8
TH_south_platte_nonumber
 10
747655.19
 20
4546051.78
 30
0.0
  0
VERTEX
  8
TH_south_platte_nonumber
 10
747611.48
 20
4546032.99
 30
0.0
  0
VERTEX
  8
TH_south_platte_nonumber
 10
747568.75
 20
4546008.39
 30
0.0
  0
VERTEX
  8
TH_south_platte_nonumber
 10
747492.95
 20
4545952.34
 30
0.0
  0
VERTEX
  8
TH_south_platte_nonumber
 10
747414.38
 20
4545899.57
 30
0.0
  0
VERTEX
  8
TH_south_platte_nonumber
 10
747238.39
 20
4545810.31
 30
0.0
  0
VERTEX
  8
TH_south_platte_nonumber
 10
747149.38
 20
4545764.1
 30
0.0
  0
VERTEX
  8
TH_south_platte_nonumber
 10
747052.06
 20
4545718.56
 30
0.0
  0
VERTEX
  8
TH_south_platte_nonumber
 10
746957.4
 20
4545676.07
 30
0.0
  0
VERTEX
  8
TH_south_platte_nonumber
 10
746864.54
 20
4545628.83
 30
0.0
  0
VERTEX
  8
TH_south_platte_nonumber
 10
746767.15
 20
4545582.39
 30
0.0
  0
VERTEX
  8
TH_south_platte_nonumber
 10
746669.38
 20
4545541.67
 30
0.0
  0
VERTEX
  8
TH_south_platte_nonumber
 10
746477.89
 20
4545445.54
 30
0.0
  0
VERTEX
  8
TH_south_platte_nonumber
 10
746428.46
 20
4545428.78
 30
0.0
  0
VERTEX
  8
TH_south_platte_nonumber
 10
746283.56
 20
4545389.96
 30
0.0
  0
VERTEX
  8
TH_south_platte_nonumber
 10
746237.37
 20
4545369.27
 30
0.0
  0
VERTEX
  8
TH_south_platte_nonumber
 10
746105.99
 20
4545292.37
 30
0.0
  0
VERTEX
  8
TH_south_platte_nonumber
 10
745755.85
 20
4545121.54
 30
0.0
  0
VERTEX
  8
TH_south_platte_nonumber
 10
745050.79
 20
4544766.91
 30
0.0
  0
VERTEX
  8
TH_south_platte_nonumber
 10
744872.38
 20
4544685.55
 30
0.0
  0
VERTEX
  8
TH_south_platte_nonumber
 10
744496.47
 20
4544501.08
 30
0.0
  0
VERTEX
  8
TH_south_platte_nonumber
 10
744292.31
 20
4544408.81
 30
0.0
  0
VERTEX
  8
TH_south_platte_nonumber
 10
744082.55
 20
4544306.02
 30
0.0
  0
VERTEX
  8
TH_south_platte_nonumber
 10
743335.85
 20
4543950.48
 30
0.0
  0
VERTEX
  8
TH_south_platte_nonumber
 10
743121.75
 20
4543835.28
 30
0.0
  0
VERTEX
  8
TH_south_platte_nonumber
 10
742803.33
 20
4543681.65
 30
0.0
  0
VERTEX
  8
TH_south_platte_nonumber
 10
742395.56
 20
4543481.59
 30
0.0
  0
VERTEX
  8
TH_south_platte_nonumber
 10
741968.83
 20
4543288.72
 30
0.0
  0
VERTEX
  8
TH_south_platte_nonumber
 10
741551.58
 20
4543087.85
 30
0.0
  0
VERTEX
  8
TH_south_platte_nonumber
 10
741223.35
 20
4542924.47
 30
0.0
  0
SEQEND
  8
TH_south_platte_nonumber
  0
POLYLINE
  8
TH_south_platte_nonumber
 66
1
 40
29.9999845
 41
29.9999845
 62
7
 10
742113.86
 20
4542957.75
 30
0.0
  0
VERTEX
  8
TH_south_platte_nonumber
 10
742113.86
 20
4542957.75
 30
0.0
  0
VERTEX
  8
TH_south_platte_nonumber
 10
742163.37
 20
4542980.59
 30
0.0
  0
VERTEX
  8
TH_south_platte_nonumber
 10
742213.52
 20
4542998.29
 30
0.0
  0
VERTEX
  8
TH_south_platte_nonumber
 10
742310.65
 20
4543027.31
 30
0.0
  0
VERTEX
  8
TH_south_platte_nonumber
 10
742405.81
 20
4543069.04
 30
0.0
  0
VERTEX
  8
TH_south_platte_nonumber
 10
742501.95
 20
4543111.89
 30
0.0
  0
VERTEX
  8
TH_south_platte_nonumber
 10
742595.26
 20
4543147.46
 30
0.0
  0
VERTEX
  8
TH_south_platte_nonumber
 10
742688.14
 20
4543189.73
 30
0.0
  0
VERTEX
  8
TH_south_platte_nonumber
 10
742783.08
 20
4543239.35
 30
0.0
  0
VERTEX
  8
TH_south_platte_nonumber
 10
742977.63
 20
4543340.21
 30
0.0
  0
VERTEX
  8
TH_south_platte_nonumber
 10
743182.85
 20
4543428.46
 30
0.0
  0
VERTEX
  8
TH_south_platte_nonumber
 10
743382.39
 20
4543515.57
 30
0.0
  0
VERTEX
  8
TH_south_platte_nonumber
 10
743573.48
 20
4543617.17
 30
0.0
  0
VERTEX
  8
TH_south_platte_nonumber
 10
743670.99
 20
4543665.61
 30
0.0
  0
VERTEX
  8
TH_south_platte_nonumber
 10
743765.52
 20
4543719.24
 30
0.0
  0
VERTEX
  8
TH_south_platte_nonumber
 10
743861.62
 20
4543772.48
 30
0.0
  0
VERTEX
  8
TH_south_platte_nonumber
 10
743961.36
 20
4543819.22
 30
0.0
  0
VERTEX
  8
TH_south_platte_nonumber
 10
744162.8
 20
4543918.56
 30
0.0
  0
VERTEX
  8
TH_south_platte_nonumber
 10
744370.96
 20
4544015.89
 30
0.0
  0
VERTEX
  8
TH_south_platte_nonumber
 10
744475.95
 20
4544066.06
 30
0.0
  0
VERTEX
  8
TH_south_platte_nonumber
 10
744583.11
 20
4544109.69
 30
0.0
  0
VERTEX
  8
TH_south_platte_nonumber
 10
744687.82
 20
4544155.5
 30
0.0
  0
VERTEX
  8
TH_south_platte_nonumber
 10
744789.95
 20
4544208.54
 30
0.0
  0
VERTEX
  8
TH_south_platte_nonumber
 10
744989.25
 20
4544303.55
 30
0.0
  0
VERTEX
  8
TH_south_platte_nonumber
 10
745191.41
 20
4544410.02
 30
0.0
  0
VERTEX
  8
TH_south_platte_nonumber
 10
745297.6
 20
4544463.09
 30
0.0
  0
VERTEX
  8
TH_south_platte_nonumber
 10
745403.95
 20
4544521.49
 30
0.0
  0
VERTEX
  8
TH_south_platte_nonumber
 10
745509.04
 20
4544576.36
 30
0.0
  0
VERTEX
  8
TH_south_platte_nonumber
 10
745620.01
 20
4544622.92
 30
0.0
  0
VERTEX
  8
TH_south_platte_nonumber
 10
745727.55
 20
4544669.3
 30
0.0
  0
VERTEX
  8
TH_south_platte_nonumber
 10
745833.18
 20
4544724.5
 30
0.0
  0
VERTEX
  8
TH_south_platte_nonumber
 10
745945.23
 20
4544777.68
 30
0.0
  0
VERTEX
  8
TH_south_platte_nonumber
 10
746055.02
 20
4544824.41
 30
0.0
  0
VERTEX
  8
TH_south_platte_nonumber
 10
746269.36
 20
4544924.08
 30
0.0
  0
VERTEX
  8
TH_south_platte_nonumber
 10
746376.5
 20
4544963.36
 30
0.0
  0
VERTEX
  8
TH_south_platte_nonumber
 10
746427.19
 20
4544985.69
 30
0.0
  0
VERTEX
  8
TH_south_platte_nonumber
 10
746572.91
 20
4545066.54
 30
0.0
  0
VERTEX
  8
TH_south_platte_nonumber
 10
746774.35
 20
4545155.33
 30
0.0
  0
VERTEX
  8
TH_south_platte_nonumber
 10
746971.07
 20
4545256.86
 30
0.0
  0
VERTEX
  8
TH_south_platte_nonumber
 10
747072.92
 20
4545306.39
 30
0.0
  0
VERTEX
  8
TH_south_platte_nonumber
 10
747173.14
 20
4545360.3
 30
0.0
  0
VERTEX
  8
TH_south_platte_nonumber
 10
747271.62
 20
4545409.63
 30
0.0
  0
VERTEX
  8
TH_south_platte_nonumber
 10
747376.35
 20
4545452.71
 30
0.0
  0
VERTEX
  8
TH_south_platte_nonumber
 10
747480.79
 20
4545499.41
 30
0.0
  0
VERTEX
  8
TH_south_platte_nonumber
 10
747576.34
 20
4545550.97
 30
0.0
  0
VERTEX
  8
TH_south_platte_nonumber
 10
747678.56
 20
4545601.95
 30
0.0
  0
VERTEX
  8
TH_south_platte_nonumber
 10
747782.2
 20
4545646.33
 30
0.0
  0
VERTEX
  8
TH_south_platte_nonumber
 10
747877.12
 20
4545691.25
 30
0.0
  0
VERTEX
  8
TH_south_platte_nonumber
 10
747975.18
 20
4545745.89
 30
0.0
  0
VERTEX
  8
TH_south_platte_nonumber
 10
747981.45
 20
4545749.23
 30
0.0
  0
SEQEND
  8
TH_south_platte_nonumber
  0
POLYLINE
  8
TH_south_platte_nonumber
 66
1
 40
29.9999845
 41
29.9999845
 62
7
 10
713809.57
 20
4549510.87
 30
0.0
  0
VERTEX
  8
TH_south_platte_nonumber
 10
713809.57
 20
4549510.87
 30
0.0
  0
VERTEX
  8
TH_south_platte_nonumber
 10
713632.99
 20
4549375.98
 30
0.0
  0
VERTEX
  8
TH_south_platte_nonumber
 10
713516.23
 20
4549272.24
 30
0.0
  0
VERTEX
  8
TH_south_platte_nonumber
 10
713316.74
 20
4549122.24
 30
0.0
  0
VERTEX
  8
TH_south_platte_nonumber
 10
713174.01
 20
4549032.32
 30
0.0
  0
VERTEX
  8
TH_south_platte_nonumber
 10
713039.38
 20
4548924.43
 30
0.0
  0
VERTEX
  8
TH_south_platte_nonumber
 10
712901.54
 20
4548824.1
 30
0.0
  0
VERTEX
  8
TH_south_platte_nonumber
 10
712836.17
 20
4548769.83
 30
0.0
  0
VERTEX
  8
TH_south_platte_nonumber
 10
712768.43
 20
4548721.18
 30
0.0
  0
VERTEX
  8
TH_south_platte_nonumber
 10
712635.84
 20
4548615.48
 30
0.0
  0
VERTEX
  8
TH_south_platte_nonumber
 10
712347.24
 20
4548407.22
 30
0.0
  0
VERTEX
  8
TH_south_platte_nonumber
 10
712196.12
 20
4548303.68
 30
0.0
  0
VERTEX
  8
TH_south_platte_nonumber
 10
712059.99
 20
4548190.37
 30
0.0
  0
VERTEX
  8
TH_south_platte_nonumber
 10
711844.07
 20
4548034.25
 30
0.0
  0
VERTEX
  8
TH_south_platte_nonumber
 10
711772.27
 20
4547989.22
 30
0.0
  0
VERTEX
  8
TH_south_platte_nonumber
 10
711629.34
 20
4547877.39
 30
0.0
  0
VERTEX
  8
TH_south_platte_nonumber
 10
711552.2
 20
4547829.77
 30
0.0
  0
VERTEX
  8
TH_south_platte_nonumber
 10
711473.11
 20
4547774.91
 30
0.0
  0
VERTEX
  8
TH_south_platte_nonumber
 10
711160.73
 20
4547542.15
 30
0.0
  0
VERTEX
  8
TH_south_platte_nonumber
 10
711079.13
 20
4547487.86
 30
0.0
  0
VERTEX
  8
TH_south_platte_nonumber
 10
710999.55
 20
4547430.06
 30
0.0
  0
VERTEX
  8
TH_south_platte_nonumber
 10
710845.84
 20
4547317.51
 30
0.0
  0
VERTEX
  8
TH_south_platte_nonumber
 10
710707.86
 20
4547202.23
 30
0.0
  0
VERTEX
  8
TH_south_platte_nonumber
 10
710431.96
 20
4547000.6
 30
0.0
  0
VERTEX
  8
TH_south_platte_nonumber
 10
710169.27
 20
4546814.59
 30
0.0
  0
VERTEX
  8
TH_south_platte_nonumber
 10
709483.85
 20
4546312.29
 30
0.0
  0
VERTEX
  8
TH_south_platte_nonumber
 10
709336.3
 20
4546213.67
 30
0.0
  0
VERTEX
  8
TH_south_platte_nonumber
 10
709053.99
 20
4545993.77
 30
0.0
  0
VERTEX
  8
TH_south_platte_nonumber
 10
708616.52
 20
4545669.66
 30
0.0
  0
VERTEX
  8
TH_south_platte_nonumber
 10
708045.82
 20
4545254.67
 30
0.0
  0
VERTEX
  8
TH_south_platte_nonumber
 10
707972.97
 20
4545196.96
 30
0.0
  0
VERTEX
  8
TH_south_platte_nonumber
 10
707898.06
 20
4545143.08
 30
0.0
  0
VERTEX
  8
TH_south_platte_nonumber
 10
707820.55
 20
4545095.44
 30
0.0
  0
VERTEX
  8
TH_south_platte_nonumber
 10
707746.04
 20
4545039.85
 30
0.0
  0
VERTEX
  8
TH_south_platte_nonumber
 10
707673.76
 20
4544976.52
 30
0.0
  0
VERTEX
  8
TH_south_platte_nonumber
 10
707600.39
 20
4544918.28
 30
0.0
  0
VERTEX
  8
TH_south_platte_nonumber
 10
707451.01
 20
4544808.48
 30
0.0
  0
VERTEX
  8
TH_south_platte_nonumber
 10
707301.29
 20
4544715.32
 30
0.0
  0
VERTEX
  8
TH_south_platte_nonumber
 10
707158.14
 20
4544597.69
 30
0.0
  0
VERTEX
  8
TH_south_platte_nonumber
 10
707084.28
 20
4544544.98
 30
0.0
  0
VERTEX
  8
TH_south_platte_nonumber
 10
706997.38
 20
4544468.22
 30
0.0
  0
SEQEND
  8
TH_south_platte_nonumber
  0
POLYLINE
  8
TH_south_platte_nonumber
 66
1
 40
29.9999845
 41
29.9999845
 62
7
 10
707754.58
 20
4543470.01
 30
0.0
  0
VERTEX
  8
TH_south_platte_nonumber
 10
707754.58
 20
4543470.01
 30
0.0
  0
VERTEX
  8
TH_south_platte_nonumber
 10
707848.75
 20
4543535.15
 30
0.0
  0
VERTEX
  8
TH_south_platte_nonumber
 10
707946.41
 20
4543594.56
 30
0.0
  0
VERTEX
  8
TH_south_platte_nonumber
 10
708042.51
 20
4543644.06
 30
0.0
  0
VERTEX
  8
TH_south_platte_nonumber
 10
708089.67
 20
4543671.8
 30
0.0
  0
VERTEX
  8
TH_south_platte_nonumber
 10
708136.35
 20
4543704.04
 30
0.0
  0
VERTEX
  8
TH_south_platte_nonumber
 10
708226.32
 20
4543775.63
 30
0.0
  0
VERTEX
  8
TH_south_platte_nonumber
 10
708497.98
 20
4543997.33
 30
0.0
  0
VERTEX
  8
TH_south_platte_nonumber
 10
708590.53
 20
4544068.79
 30
0.0
  0
VERTEX
  8
TH_south_platte_nonumber
 10
709562.36
 20
4544753.39
 30
0.0
  0
VERTEX
  8
TH_south_platte_nonumber
 10
709836.09
 20
4544964.46
 30
0.0
  0
VERTEX
  8
TH_south_platte_nonumber
 10
709926.82
 20
4545039.59
 30
0.0
  0
VERTEX
  8
TH_south_platte_nonumber
 10
710022.33
 20
4545113.39
 30
0.0
  0
VERTEX
  8
TH_south_platte_nonumber
 10
710122.34
 20
4545180.24
 30
0.0
  0
VERTEX
  8
TH_south_platte_nonumber
 10
710316.69
 20
4545323.06
 30
0.0
  0
VERTEX
  8
TH_south_platte_nonumber
 10
710522.16
 20
4545461.82
 30
0.0
  0
VERTEX
  8
TH_south_platte_nonumber
 10
710621.84
 20
4545536.53
 30
0.0
  0
VERTEX
  8
TH_south_platte_nonumber
 10
710725.66
 20
4545609.09
 30
0.0
  0
VERTEX
  8
TH_south_platte_nonumber
 10
710829.63
 20
4545676.42
 30
0.0
  0
VERTEX
  8
TH_south_platte_nonumber
 10
711028.5
 20
4545831.71
 30
0.0
  0
VERTEX
  8
TH_south_platte_nonumber
 10
711230.16
 20
4545973.66
 30
0.0
  0
VERTEX
  8
TH_south_platte_nonumber
 10
711326.06
 20
4546052.27
 30
0.0
  0
VERTEX
  8
TH_south_platte_nonumber
 10
711423.88
 20
4546126.07
 30
0.0
  0
VERTEX
  8
TH_south_platte_nonumber
 10
711525.12
 20
4546193.16
 30
0.0
  0
VERTEX
  8
TH_south_platte_nonumber
 10
711624.17
 20
4546265.43
 30
0.0
  0
VERTEX
  8
TH_south_platte_nonumber
 10
711721.04
 20
4546341.34
 30
0.0
  0
VERTEX
  8
TH_south_platte_nonumber
 10
711918.11
 20
4546486.66
 30
0.0
  0
VERTEX
  8
TH_south_platte_nonumber
 10
712011.98
 20
4546560.84
 30
0.0
  0
VERTEX
  8
TH_south_platte_nonumber
 10
712197.13
 20
4546688.42
 30
0.0
  0
VERTEX
  8
TH_south_platte_nonumber
 10
712384.81
 20
4546827.55
 30
0.0
  0
VERTEX
  8
TH_south_platte_nonumber
 10
712485.41
 20
4546890.52
 30
0.0
  0
VERTEX
  8
TH_south_platte_nonumber
 10
712584.27
 20
4546959.47
 30
0.0
  0
VERTEX
  8
TH_south_platte_nonumber
 10
712674
 20
4547034.02
 30
0.0
  0
VERTEX
  8
TH_south_platte_nonumber
 10
712859.99
 20
4547170.26
 30
0.0
  0
VERTEX
  8
TH_south_platte_nonumber
 10
713039.02
 20
4547316.31
 30
0.0
  0
VERTEX
  8
TH_south_platte_nonumber
 10
713132.8
 20
4547381.06
 30
0.0
  0
VERTEX
  8
TH_south_platte_nonumber
 10
713305.86
 20
4547523.95
 30
0.0
  0
VERTEX
  8
TH_south_platte_nonumber
 10
713489.67
 20
4547650.66
 30
0.0
  0
VERTEX
  8
TH_south_platte_nonumber
 10
713578.49
 20
4547721.21
 30
0.0
  0
VERTEX
  8
TH_south_platte_nonumber
 10
713770.22
 20
4547841.91
 30
0.0
  0
VERTEX
  8
TH_south_platte_nonumber
 10
713953.61
 20
4547973.22
 30
0.0
  0
VERTEX
  8
TH_south_platte_nonumber
 10
714051.69
 20
4548031.74
 30
0.0
  0
VERTEX
  8
TH_south_platte_nonumber
 10
714098.41
 20
4548064.84
 30
0.0
  0
VERTEX
  8
TH_south_platte_nonumber
 10
714227.94
 20
4548173.36
 30
0.0
  0
VERTEX
  8
TH_south_platte_nonumber
 10
714684.4
 20
4548521.93
 30
0.0
  0
VERTEX
  8
TH_south_platte_nonumber
 10
714881.49
 20
4548654.58
 30
0.0
  0
VERTEX
  8
TH_south_platte_nonumber
 10
714972.22
 20
4548719.21
 30
0.0
  0
SEQEND
  8
TH_south_platte_nonumber
  0
POLYLINE
  8
TH_south_platte_nonumber
 66
1
 40
29.9999845
 41
29.9999845
 62
7
 10
584092.31
 20
4562658.83
 30
0.0
  0
VERTEX
  8
TH_south_platte_nonumber
 10
584092.31
 20
4562658.83
 30
0.0
  0
VERTEX
  8
TH_south_platte_nonumber
 10
584035.97
 20
4562641.93
 30
0.0
  0
VERTEX
  8
TH_south_platte_nonumber
 10
583978.93
 20
4562629.6
 30
0.0
  0
VERTEX
  8
TH_south_platte_nonumber
 10
583914.57
 20
4562623.73
 30
0.0
  0
VERTEX
  8
TH_south_platte_nonumber
 10
583850.46
 20
4562625.36
 30
0.0
  0
VERTEX
  8
TH_south_platte_nonumber
 10
583738.02
 20
4562631.17
 30
0.0
  0
VERTEX
  8
TH_south_platte_nonumber
 10
583626.96
 20
4562625.77
 30
0.0
  0
VERTEX
  8
TH_south_platte_nonumber
 10
583513.88
 20
4562617.52
 30
0.0
  0
VERTEX
  8
TH_south_platte_nonumber
 10
583401.28
 20
4562614.46
 30
0.0
  0
VERTEX
  8
TH_south_platte_nonumber
 10
583173.67
 20
4562606.74
 30
0.0
  0
VERTEX
  8
TH_south_platte_nonumber
 10
583066.29
 20
4562607.52
 30
0.0
  0
VERTEX
  8
TH_south_platte_nonumber
 10
582959.46
 20
4562603.08
 30
0.0
  0
VERTEX
  8
TH_south_platte_nonumber
 10
582739.64
 20
4562579.72
 30
0.0
  0
VERTEX
  8
TH_south_platte_nonumber
 10
582515.72
 20
4562559.4
 30
0.0
  0
VERTEX
  8
TH_south_platte_nonumber
 10
582287.2
 20
4562543.52
 30
0.0
  0
VERTEX
  8
TH_south_platte_nonumber
 10
582059.83
 20
4562515.14
 30
0.0
  0
VERTEX
  8
TH_south_platte_nonumber
 10
581826.54
 20
4562502.67
 30
0.0
  0
VERTEX
  8
TH_south_platte_nonumber
 10
581476.56
 20
4562491.25
 30
0.0
  0
VERTEX
  8
TH_south_platte_nonumber
 10
581362.57
 20
4562478.32
 30
0.0
  0
VERTEX
  8
TH_south_platte_nonumber
 10
581214.95
 20
4562471.31
 30
0.0
  0
VERTEX
  8
TH_south_platte_nonumber
 10
581179.91
 20
4562471.37
 30
0.0
  0
VERTEX
  8
TH_south_platte_nonumber
 10
581067.9
 20
4562468.94
 30
0.0
  0
VERTEX
  8
TH_south_platte_nonumber
 10
580961.18
 20
4562460.02
 30
0.0
  0
VERTEX
  8
TH_south_platte_nonumber
 10
580649.84
 20
4562420.58
 30
0.0
  0
VERTEX
  8
TH_south_platte_nonumber
 10
580547.87
 20
4562400.59
 30
0.0
  0
VERTEX
  8
TH_south_platte_nonumber
 10
580443.91
 20
4562388.8
 30
0.0
  0
VERTEX
  8
TH_south_platte_nonumber
 10
580017.86
 20
4562370.77
 30
0.0
  0
VERTEX
  8
TH_south_platte_nonumber
 10
579789.3
 20
4562351.7
 30
0.0
  0
VERTEX
  8
TH_south_platte_nonumber
 10
579703.56
 20
4562349.13
 30
0.0
  0
VERTEX
  8
TH_south_platte_nonumber
 10
579595.83
 20
4562350.79
 30
0.0
  0
VERTEX
  8
TH_south_platte_nonumber
 10
579525.28
 20
4562349.5
 30
0.0
  0
SEQEND
  8
TH_south_platte_nonumber
  0
POLYLINE
  8
TH_south_platte_nonumber
 66
1
 40
29.9999845
 41
29.9999845
 62
7
 10
590424.96
 20
4564899.94
 30
0.0
  0
VERTEX
  8
TH_south_platte_nonumber
 10
590424.96
 20
4564899.94
 30
0.0
  0
VERTEX
  8
TH_south_platte_nonumber
 10
590335.4
 20
4564841.95
 30
0.0
  0
VERTEX
  8
TH_south_platte_nonumber
 10
590287.1
 20
4564817.37
 30
0.0
  0
VERTEX
  8
TH_south_platte_nonumber
 10
590235.53
 20
4564797.27
 30
0.0
  0
VERTEX
  8
TH_south_platte_nonumber
 10
590130.8
 20
4564764.85
 30
0.0
  0
VERTEX
  8
TH_south_platte_nonumber
 10
589933.62
 20
4564702.42
 30
0.0
  0
VERTEX
  8
TH_south_platte_nonumber
 10
589829.84
 20
4564674.6
 30
0.0
  0
VERTEX
  8
TH_south_platte_nonumber
 10
589730.36
 20
4564643.82
 30
0.0
  0
VERTEX
  8
TH_south_platte_nonumber
 10
589530.89
 20
4564574.19
 30
0.0
  0
VERTEX
  8
TH_south_platte_nonumber
 10
589328.12
 20
4564508.33
 30
0.0
  0
VERTEX
  8
TH_south_platte_nonumber
 10
589125.22
 20
4564449.39
 30
0.0
  0
VERTEX
  8
TH_south_platte_nonumber
 10
588929.33
 20
4564368.81
 30
0.0
  0
VERTEX
  8
TH_south_platte_nonumber
 10
588837.68
 20
4564341.08
 30
0.0
  0
SEQEND
  8
TH_south_platte_nonumber
  0
POLYLINE
  8
TH_south_platte_nonumber
 66
1
 40
29.9999845
 41
29.9999845
 62
7
 10
592536.9
 20
4566365.86
 30
0.0
  0
VERTEX
  8
TH_south_platte_nonumber
 10
592536.9
 20
4566365.86
 30
0.0
  0
VERTEX
  8
TH_south_platte_nonumber
 10
592480.07
 20
4566364.61
 30
0.0
  0
VERTEX
  8
TH_south_platte_nonumber
 10
592424.83
 20
4566358.36
 30
0.0
  0
VERTEX
  8
TH_south_platte_nonumber
 10
592372.73
 20
4566344.01
 30
0.0
  0
VERTEX
  8
TH_south_platte_nonumber
 10
592324.9
 20
4566321.56
 30
0.0
  0
VERTEX
  8
TH_south_platte_nonumber
 10
592281
 20
4566293.72
 30
0.0
  0
VERTEX
  8
TH_south_platte_nonumber
 10
592241.25
 20
4566262.95
 30
0.0
  0
VERTEX
  8
TH_south_platte_nonumber
 10
592170.13
 20
4566196.88
 30
0.0
  0
VERTEX
  8
TH_south_platte_nonumber
 10
592103.7
 20
4566123.05
 30
0.0
  0
VERTEX
  8
TH_south_platte_nonumber
 10
592034.07
 20
4566053.11
 30
0.0
  0
VERTEX
  8
TH_south_platte_nonumber
 10
591957.28
 20
4565997.61
 30
0.0
  0
VERTEX
  8
TH_south_platte_nonumber
 10
591877.75
 20
4565945.95
 30
0.0
  0
VERTEX
  8
TH_south_platte_nonumber
 10
591805.92
 20
4565882.31
 30
0.0
  0
VERTEX
  8
TH_south_platte_nonumber
 10
591740.42
 20
4565815.23
 30
0.0
  0
VERTEX
  8
TH_south_platte_nonumber
 10
591670.4
 20
4565752.61
 30
0.0
  0
VERTEX
  8
TH_south_platte_nonumber
 10
591441.64
 20
4565578.41
 30
0.0
  0
VERTEX
  8
TH_south_platte_nonumber
 10
591283.41
 20
4565472.03
 30
0.0
  0
VERTEX
  8
TH_south_platte_nonumber
 10
591204.07
 20
4565412.75
 30
0.0
  0
VERTEX
  8
TH_south_platte_nonumber
 10
591042.74
 20
4565303.21
 30
0.0
  0
VERTEX
  8
TH_south_platte_nonumber
 10
590958.45
 20
4565244.21
 30
0.0
  0
VERTEX
  8
TH_south_platte_nonumber
 10
590871.23
 20
4565188.45
 30
0.0
  0
VERTEX
  8
TH_south_platte_nonumber
 10
590691.97
 20
4565070.54
 30
0.0
  0
VERTEX
  8
TH_south_platte_nonumber
 10
590510.35
 20
4564956.35
 30
0.0
  0
VERTEX
  8
TH_south_platte_nonumber
 10
590427.77
 20
4564901.84
 30
0.0
  0
SEQEND
  8
TH_south_platte_nonumber
  0
POLYLINE
  8
TH_south_platte_nonumber
 66
1
 40
29.9999845
 41
29.9999845
 62
7
 10
602055.77
 20
4566311.08
 30
0.0
  0
VERTEX
  8
TH_south_platte_nonumber
 10
602055.77
 20
4566311.08
 30
0.0
  0
VERTEX
  8
TH_south_platte_nonumber
 10
601990.8
 20
4566305.35
 30
0.0
  0
VERTEX
  8
TH_south_platte_nonumber
 10
601923.91
 20
4566307.52
 30
0.0
  0
VERTEX
  8
TH_south_platte_nonumber
 10
601790
 20
4566316.13
 30
0.0
  0
VERTEX
  8
TH_south_platte_nonumber
 10
601660.37
 20
4566303.12
 30
0.0
  0
VERTEX
  8
TH_south_platte_nonumber
 10
601532.17
 20
4566294.74
 30
0.0
  0
VERTEX
  8
TH_south_platte_nonumber
 10
601412.55
 20
4566301.62
 30
0.0
  0
VERTEX
  8
TH_south_platte_nonumber
 10
601351.83
 20
4566303.32
 30
0.0
  0
VERTEX
  8
TH_south_platte_nonumber
 10
601290.7
 20
4566301.33
 30
0.0
  0
VERTEX
  8
TH_south_platte_nonumber
 10
601166.89
 20
4566297.68
 30
0.0
  0
VERTEX
  8
TH_south_platte_nonumber
 10
601039.55
 20
4566299.44
 30
0.0
  0
VERTEX
  8
TH_south_platte_nonumber
 10
600800.13
 20
4566293.34
 30
0.0
  0
VERTEX
  8
TH_south_platte_nonumber
 10
600706.63
 20
4566293.6
 30
0.0
  0
VERTEX
  8
TH_south_platte_nonumber
 10
600536.18
 20
4566291.49
 30
0.0
  0
VERTEX
  8
TH_south_platte_nonumber
 10
600436.39
 20
4566296.93
 30
0.0
  0
VERTEX
  8
TH_south_platte_nonumber
 10
600332.34
 20
4566309.39
 30
0.0
  0
VERTEX
  8
TH_south_platte_nonumber
 10
600204.62
 20
4566317.83
 30
0.0
  0
VERTEX
  8
TH_south_platte_nonumber
 10
600000.84
 20
4566313.42
 30
0.0
  0
VERTEX
  8
TH_south_platte_nonumber
 10
599927.67
 20
4566314.03
 30
0.0
  0
VERTEX
  8
TH_south_platte_nonumber
 10
599628.72
 20
4566302.58
 30
0.0
  0
VERTEX
  8
TH_south_platte_nonumber
 10
599525.14
 20
4566304.02
 30
0.0
  0
VERTEX
  8
TH_south_platte_nonumber
 10
599305.81
 20
4566297.4
 30
0.0
  0
VERTEX
  8
TH_south_platte_nonumber
 10
599072.86
 20
4566300.97
 30
0.0
  0
VERTEX
  8
TH_south_platte_nonumber
 10
598965.91
 20
4566300.33
 30
0.0
  0
VERTEX
  8
TH_south_platte_nonumber
 10
598384.3
 20
4566323.14
 30
0.0
  0
VERTEX
  8
TH_south_platte_nonumber
 10
598177.83
 20
4566319.72
 30
0.0
  0
VERTEX
  8
TH_south_platte_nonumber
 10
598076.7
 20
4566320.02
 30
0.0
  0
VERTEX
  8
TH_south_platte_nonumber
 10
597805.53
 20
4566312.88
 30
0.0
  0
VERTEX
  8
TH_south_platte_nonumber
 10
597437.81
 20
4566315.29
 30
0.0
  0
VERTEX
  8
TH_south_platte_nonumber
 10
597240.63
 20
4566313.24
 30
0.0
  0
VERTEX
  8
TH_south_platte_nonumber
 10
597104.79
 20
4566313.64
 30
0.0
  0
VERTEX
  8
TH_south_platte_nonumber
 10
596842.31
 20
4566307.54
 30
0.0
  0
VERTEX
  8
TH_south_platte_nonumber
 10
596715.51
 20
4566308.48
 30
0.0
  0
VERTEX
  8
TH_south_platte_nonumber
 10
596555.78
 20
4566303.33
 30
0.0
  0
VERTEX
  8
TH_south_platte_nonumber
 10
596484.67
 20
4566305.04
 30
0.0
  0
VERTEX
  8
TH_south_platte_nonumber
 10
596381.15
 20
4566314.81
 30
0.0
  0
VERTEX
  8
TH_south_platte_nonumber
 10
596174.67
 20
4566326.95
 30
0.0
  0
VERTEX
  8
TH_south_platte_nonumber
 10
595934.85
 20
4566348.51
 30
0.0
  0
VERTEX
  8
TH_south_platte_nonumber
 10
595799.44
 20
4566343.86
 30
0.0
  0
VERTEX
  8
TH_south_platte_nonumber
 10
595599.43
 20
4566353.48
 30
0.0
  0
VERTEX
  8
TH_south_platte_nonumber
 10
595402.48
 20
4566347
 30
0.0
  0
VERTEX
  8
TH_south_platte_nonumber
 10
595243.51
 20
4566351.3
 30
0.0
  0
VERTEX
  8
TH_south_platte_nonumber
 10
595079.12
 20
4566345.88
 30
0.0
  0
VERTEX
  8
TH_south_platte_nonumber
 10
594870.38
 20
4566358.95
 30
0.0
  0
VERTEX
  8
TH_south_platte_nonumber
 10
594784.11
 20
4566358
 30
0.0
  0
VERTEX
  8
TH_south_platte_nonumber
 10
594698.29
 20
4566361.85
 30
0.0
  0
VERTEX
  8
TH_south_platte_nonumber
 10
594592.19
 20
4566371.2
 30
0.0
  0
VERTEX
  8
TH_south_platte_nonumber
 10
594524.29
 20
4566372.79
 30
0.0
  0
VERTEX
  8
TH_south_platte_nonumber
 10
594413.79
 20
4566370.81
 30
0.0
  0
VERTEX
  8
TH_south_platte_nonumber
 10
594214.21
 20
4566376.71
 30
0.0
  0
VERTEX
  8
TH_south_platte_nonumber
 10
594013
 20
4566366.74
 30
0.0
  0
VERTEX
  8
TH_south_platte_nonumber
 10
593916.15
 20
4566367.64
 30
0.0
  0
VERTEX
  8
TH_south_platte_nonumber
 10
593647.45
 20
4566357.69
 30
0.0
  0
VERTEX
  8
TH_south_platte_nonumber
 10
593159.7
 20
4566347.27
 30
0.0
  0
VERTEX
  8
TH_south_platte_nonumber
 10
593102.6
 20
4566347.29
 30
0.0
  0
VERTEX
  8
TH_south_platte_nonumber
 10
593074.21
 20
4566347.27
 30
0.0
  0
VERTEX
  8
TH_south_platte_nonumber
 10
592933.79
 20
4566349.24
 30
0.0
  0
VERTEX
  8
TH_south_platte_nonumber
 10
592702.49
 20
4566362.7
 30
0.0
  0
VERTEX
  8
TH_south_platte_nonumber
 10
592540.49
 20
4566365.83
 30
0.0
  0
SEQEND
  8
TH_south_platte_nonumber
  0
POLYLINE
  8
TH_south_platte_nonumber
 66
1
 40
29.9999845
 41
29.9999845
 62
7
 10
611762.79
 20
4568893.39
 30
0.0
  0
VERTEX
  8
TH_south_platte_nonumber
 10
611762.79
 20
4568893.39
 30
0.0
  0
VERTEX
  8
TH_south_platte_nonumber
 10
611286.36
 20
4568713.74
 30
0.0
  0
VERTEX
  8
TH_south_platte_nonumber
 10
611098.9
 20
4568680.9
 30
0.0
  0
VERTEX
  8
TH_south_platte_nonumber
 10
610818.95
 20
4568601.7
 30
0.0
  0
VERTEX
  8
TH_south_platte_nonumber
 10
610721.07
 20
4568570.58
 30
0.0
  0
VERTEX
  8
TH_south_platte_nonumber
 10
610619.46
 20
4568543.19
 30
0.0
  0
VERTEX
  8
TH_south_platte_nonumber
 10
610416.12
 20
4568500.49
 30
0.0
  0
VERTEX
  8
TH_south_platte_nonumber
 10
609903.77
 20
4568350.02
 30
0.0
  0
VERTEX
  8
TH_south_platte_nonumber
 10
609806.46
 20
4568326.22
 30
0.0
  0
VERTEX
  8
TH_south_platte_nonumber
 10
609112.48
 20
4568133.47
 30
0.0
  0
VERTEX
  8
TH_south_platte_nonumber
 10
609015.54
 20
4568099.39
 30
0.0
  0
VERTEX
  8
TH_south_platte_nonumber
 10
608922.24
 20
4568061.05
 30
0.0
  0
VERTEX
  8
TH_south_platte_nonumber
 10
608825.01
 20
4568026.91
 30
0.0
  0
VERTEX
  8
TH_south_platte_nonumber
 10
608621.31
 20
4567983.96
 30
0.0
  0
VERTEX
  8
TH_south_platte_nonumber
 10
608520.35
 20
4567959.19
 30
0.0
  0
VERTEX
  8
TH_south_platte_nonumber
 10
608417.14
 20
4567938.67
 30
0.0
  0
VERTEX
  8
TH_south_platte_nonumber
 10
608313.21
 20
4567923.3
 30
0.0
  0
VERTEX
  8
TH_south_platte_nonumber
 10
608105.98
 20
4567876.72
 30
0.0
  0
VERTEX
  8
TH_south_platte_nonumber
 10
608001.03
 20
4567859.26
 30
0.0
  0
VERTEX
  8
TH_south_platte_nonumber
 10
607897.9
 20
4567834.67
 30
0.0
  0
VERTEX
  8
TH_south_platte_nonumber
 10
607794.85
 20
4567800.63
 30
0.0
  0
VERTEX
  8
TH_south_platte_nonumber
 10
607691.51
 20
4567775.71
 30
0.0
  0
VERTEX
  8
TH_south_platte_nonumber
 10
607591.64
 20
4567758.51
 30
0.0
  0
VERTEX
  8
TH_south_platte_nonumber
 10
607391.17
 20
4567706.41
 30
0.0
  0
VERTEX
  8
TH_south_platte_nonumber
 10
607245.86
 20
4567682.49
 30
0.0
  0
VERTEX
  8
TH_south_platte_nonumber
 10
607199.14
 20
4567669.03
 30
0.0
  0
VERTEX
  8
TH_south_platte_nonumber
 10
607106.87
 20
4567633.5
 30
0.0
  0
VERTEX
  8
TH_south_platte_nonumber
 10
606915.89
 20
4567577.49
 30
0.0
  0
VERTEX
  8
TH_south_platte_nonumber
 10
606822.06
 20
4567545.23
 30
0.0
  0
VERTEX
  8
TH_south_platte_nonumber
 10
606728.73
 20
4567524.65
 30
0.0
  0
VERTEX
  8
TH_south_platte_nonumber
 10
606630.44
 20
4567507.98
 30
0.0
  0
VERTEX
  8
TH_south_platte_nonumber
 10
606444.7
 20
4567446.08
 30
0.0
  0
VERTEX
  8
TH_south_platte_nonumber
 10
606148.28
 20
4567362.84
 30
0.0
  0
VERTEX
  8
TH_south_platte_nonumber
 10
605654.76
 20
4567241.89
 30
0.0
  0
VERTEX
  8
TH_south_platte_nonumber
 10
605465.67
 20
4567186.13
 30
0.0
  0
VERTEX
  8
TH_south_platte_nonumber
 10
605367.57
 20
4567166.26
 30
0.0
  0
VERTEX
  8
TH_south_platte_nonumber
 10
605274.24
 20
4567141.54
 30
0.0
  0
VERTEX
  8
TH_south_platte_nonumber
 10
605178.84
 20
4567110.75
 30
0.0
  0
VERTEX
  8
TH_south_platte_nonumber
 10
604794.69
 20
4567012.09
 30
0.0
  0
VERTEX
  8
TH_south_platte_nonumber
 10
604698.78
 20
4566990.13
 30
0.0
  0
VERTEX
  8
TH_south_platte_nonumber
 10
604026.1
 20
4566813.69
 30
0.0
  0
VERTEX
  8
TH_south_platte_nonumber
 10
603834.69
 20
4566759.74
 30
0.0
  0
VERTEX
  8
TH_south_platte_nonumber
 10
603545.84
 20
4566672.7
 30
0.0
  0
VERTEX
  8
TH_south_platte_nonumber
 10
603444.33
 20
4566650.75
 30
0.0
  0
VERTEX
  8
TH_south_platte_nonumber
 10
603244.91
 20
4566600.2
 30
0.0
  0
VERTEX
  8
TH_south_platte_nonumber
 10
603050.11
 20
4566542.65
 30
0.0
  0
VERTEX
  8
TH_south_platte_nonumber
 10
602649.3
 20
4566438.35
 30
0.0
  0
VERTEX
  8
TH_south_platte_nonumber
 10
602443.02
 20
4566393.16
 30
0.0
  0
VERTEX
  8
TH_south_platte_nonumber
 10
602241.98
 20
4566344.24
 30
0.0
  0
VERTEX
  8
TH_south_platte_nonumber
 10
602059.01
 20
4566311.58
 30
0.0
  0
SEQEND
  8
TH_south_platte_nonumber
  0
POLYLINE
  8
TH_south_platte_nonumber
 66
1
 40
29.9999845
 41
29.9999845
 62
7
 10
588957.93
 20
4564388.7
 30
0.0
  0
VERTEX
  8
TH_south_platte_nonumber
 10
588957.93
 20
4564388.7
 30
0.0
  0
VERTEX
  8
TH_south_platte_nonumber
 10
588638.21
 20
4564259.79
 30
0.0
  0
VERTEX
  8
TH_south_platte_nonumber
 10
588422.41
 20
4564192.33
 30
0.0
  0
VERTEX
  8
TH_south_platte_nonumber
 10
588316.18
 20
4564153.99
 30
0.0
  0
VERTEX
  8
TH_south_platte_nonumber
 10
588094.62
 20
4564081.65
 30
0.0
  0
VERTEX
  8
TH_south_platte_nonumber
 10
587433.78
 20
4563849.01
 30
0.0
  0
VERTEX
  8
TH_south_platte_nonumber
 10
587224.65
 20
4563772.4
 30
0.0
  0
VERTEX
  8
TH_south_platte_nonumber
 10
587013.8
 20
4563703.26
 30
0.0
  0
VERTEX
  8
TH_south_platte_nonumber
 10
586807.98
 20
4563621.86
 30
0.0
  0
VERTEX
  8
TH_south_platte_nonumber
 10
586597.42
 20
4563546.74
 30
0.0
  0
VERTEX
  8
TH_south_platte_nonumber
 10
586492.18
 20
4563503.94
 30
0.0
  0
VERTEX
  8
TH_south_platte_nonumber
 10
585722.8
 20
4563248.3
 30
0.0
  0
VERTEX
  8
TH_south_platte_nonumber
 10
585486.97
 20
4563175.45
 30
0.0
  0
VERTEX
  8
TH_south_platte_nonumber
 10
585255.03
 20
4563098.48
 30
0.0
  0
VERTEX
  8
TH_south_platte_nonumber
 10
584799.31
 20
4562933.6
 30
0.0
  0
VERTEX
  8
TH_south_platte_nonumber
 10
584576.26
 20
4562843.66
 30
0.0
  0
VERTEX
  8
TH_south_platte_nonumber
 10
584095.79
 20
4562660.02
 30
0.0
  0
SEQEND
  8
TH_south_platte_nonumber
  0
POLYLINE
  8
TH_south_platte_nonumber
 66
1
 40
29.9999845
 41
29.9999845
 62
7
 10
626651.87
 20
4568271.52
 30
0.0
  0
VERTEX
  8
TH_south_platte_nonumber
 10
626651.87
 20
4568271.52
 30
0.0
  0
VERTEX
  8
TH_south_platte_nonumber
 10
626549.63
 20
4568287.61
 30
0.0
  0
VERTEX
  8
TH_south_platte_nonumber
 10
626491.02
 20
4568290.84
 30
0.0
  0
VERTEX
  8
TH_south_platte_nonumber
 10
626433.18
 20
4568287.68
 30
0.0
  0
VERTEX
  8
TH_south_platte_nonumber
 10
626337.47
 20
4568273.04
 30
0.0
  0
VERTEX
  8
TH_south_platte_nonumber
 10
626150.24
 20
4568231.76
 30
0.0
  0
VERTEX
  8
TH_south_platte_nonumber
 10
626103.77
 20
4568229.17
 30
0.0
  0
VERTEX
  8
TH_south_platte_nonumber
 10
626059.41
 20
4568234.9
 30
0.0
  0
VERTEX
  8
TH_south_platte_nonumber
 10
625975.01
 20
4568256.02
 30
0.0
  0
VERTEX
  8
TH_south_platte_nonumber
 10
625803.01
 20
4568284.46
 30
0.0
  0
VERTEX
  8
TH_south_platte_nonumber
 10
625718.13
 20
4568292.44
 30
0.0
  0
VERTEX
  8
TH_south_platte_nonumber
 10
625536.06
 20
4568296.21
 30
0.0
  0
VERTEX
  8
TH_south_platte_nonumber
 10
625350.63
 20
4568305.41
 30
0.0
  0
VERTEX
  8
TH_south_platte_nonumber
 10
624754.43
 20
4568347.86
 30
0.0
  0
VERTEX
  8
TH_south_platte_nonumber
 10
624414.83
 20
4568358.27
 30
0.0
  0
VERTEX
  8
TH_south_platte_nonumber
 10
624315.93
 20
4568357.48
 30
0.0
  0
VERTEX
  8
TH_south_platte_nonumber
 10
624248.36
 20
4568359.62
 30
0.0
  0
VERTEX
  8
TH_south_platte_nonumber
 10
624141.16
 20
4568368.71
 30
0.0
  0
VERTEX
  8
TH_south_platte_nonumber
 10
623495.07
 20
4568394.9
 30
0.0
  0
VERTEX
  8
TH_south_platte_nonumber
 10
623088.56
 20
4568409.28
 30
0.0
  0
VERTEX
  8
TH_south_platte_nonumber
 10
622966.48
 20
4568408.78
 30
0.0
  0
VERTEX
  8
TH_south_platte_nonumber
 10
622528.4
 20
4568420.62
 30
0.0
  0
VERTEX
  8
TH_south_platte_nonumber
 10
622426.18
 20
4568429.61
 30
0.0
  0
VERTEX
  8
TH_south_platte_nonumber
 10
622218.79
 20
4568438.36
 30
0.0
  0
VERTEX
  8
TH_south_platte_nonumber
 10
622062.36
 20
4568450.35
 30
0.0
  0
VERTEX
  8
TH_south_platte_nonumber
 10
621878.07
 20
4568443.3
 30
0.0
  0
VERTEX
  8
TH_south_platte_nonumber
 10
621614.56
 20
4568457.1
 30
0.0
  0
VERTEX
  8
TH_south_platte_nonumber
 10
621582.51
 20
4568456.85
 30
0.0
  0
VERTEX
  8
TH_south_platte_nonumber
 10
621481.6
 20
4568460.53
 30
0.0
  0
VERTEX
  8
TH_south_platte_nonumber
 10
621332.34
 20
4568472.06
 30
0.0
  0
VERTEX
  8
TH_south_platte_nonumber
 10
621239.83
 20
4568470.47
 30
0.0
  0
VERTEX
  8
TH_south_platte_nonumber
 10
621196.52
 20
4568471.66
 30
0.0
  0
VERTEX
  8
TH_south_platte_nonumber
 10
620996.94
 20
4568491.09
 30
0.0
  0
VERTEX
  8
TH_south_platte_nonumber
 10
620898.21
 20
4568492.16
 30
0.0
  0
VERTEX
  8
TH_south_platte_nonumber
 10
620647.62
 20
4568505.63
 30
0.0
  0
VERTEX
  8
TH_south_platte_nonumber
 10
620585.07
 20
4568505.51
 30
0.0
  0
VERTEX
  8
TH_south_platte_nonumber
 10
620270.41
 20
4568515.94
 30
0.0
  0
VERTEX
  8
TH_south_platte_nonumber
 10
619991.48
 20
4568526.67
 30
0.0
  0
VERTEX
  8
TH_south_platte_nonumber
 10
619899.24
 20
4568525.77
 30
0.0
  0
VERTEX
  8
TH_south_platte_nonumber
 10
619685.8
 20
4568536.34
 30
0.0
  0
VERTEX
  8
TH_south_platte_nonumber
 10
619607.89
 20
4568536.99
 30
0.0
  0
VERTEX
  8
TH_south_platte_nonumber
 10
619581.65
 20
4568536.98
 30
0.0
  0
VERTEX
  8
TH_south_platte_nonumber
 10
619317.1
 20
4568547.86
 30
0.0
  0
VERTEX
  8
TH_south_platte_nonumber
 10
619181.04
 20
4568546.13
 30
0.0
  0
VERTEX
  8
TH_south_platte_nonumber
 10
618944.28
 20
4568559.28
 30
0.0
  0
VERTEX
  8
TH_south_platte_nonumber
 10
618740.42
 20
4568568.12
 30
0.0
  0
VERTEX
  8
TH_south_platte_nonumber
 10
618639.86
 20
4568577.52
 30
0.0
  0
VERTEX
  8
TH_south_platte_nonumber
 10
618571.2
 20
4568579.86
 30
0.0
  0
VERTEX
  8
TH_south_platte_nonumber
 10
618474.08
 20
4568577.44
 30
0.0
  0
VERTEX
  8
TH_south_platte_nonumber
 10
618225.56
 20
4568592.15
 30
0.0
  0
VERTEX
  8
TH_south_platte_nonumber
 10
618138.83
 20
4568591.85
 30
0.0
  0
VERTEX
  8
TH_south_platte_nonumber
 10
617777.6
 20
4568606.47
 30
0.0
  0
VERTEX
  8
TH_south_platte_nonumber
 10
617580.59
 20
4568618.97
 30
0.0
  0
VERTEX
  8
TH_south_platte_nonumber
 10
617477.91
 20
4568620.14
 30
0.0
  0
VERTEX
  8
TH_south_platte_nonumber
 10
617180.03
 20
4568638.69
 30
0.0
  0
VERTEX
  8
TH_south_platte_nonumber
 10
616577.98
 20
4568661.77
 30
0.0
  0
VERTEX
  8
TH_south_platte_nonumber
 10
616371.15
 20
4568665.68
 30
0.0
  0
VERTEX
  8
TH_south_platte_nonumber
 10
616162.29
 20
4568678.21
 30
0.0
  0
VERTEX
  8
TH_south_platte_nonumber
 10
615955.32
 20
4568686.54
 30
0.0
  0
VERTEX
  8
TH_south_platte_nonumber
 10
615745.08
 20
4568689.93
 30
0.0
  0
VERTEX
  8
TH_south_platte_nonumber
 10
615527.83
 20
4568701.87
 30
0.0
  0
VERTEX
  8
TH_south_platte_nonumber
 10
615305.87
 20
4568707.69
 30
0.0
  0
VERTEX
  8
TH_south_platte_nonumber
 10
614859.08
 20
4568733.51
 30
0.0
  0
VERTEX
  8
TH_south_platte_nonumber
 10
614189.59
 20
4568754.7
 30
0.0
  0
VERTEX
  8
TH_south_platte_nonumber
 10
613967.3
 20
4568769.74
 30
0.0
  0
VERTEX
  8
TH_south_platte_nonumber
 10
613857.37
 20
4568773.48
 30
0.0
  0
VERTEX
  8
TH_south_platte_nonumber
 10
613636.93
 20
4568793.68
 30
0.0
  0
VERTEX
  8
TH_south_platte_nonumber
 10
613540.49
 20
4568795.71
 30
0.0
  0
VERTEX
  8
TH_south_platte_nonumber
 10
613207.46
 20
4568787.21
 30
0.0
  0
VERTEX
  8
TH_south_platte_nonumber
 10
612857.34
 20
4568800.45
 30
0.0
  0
VERTEX
  8
TH_south_platte_nonumber
 10
612649.58
 20
4568816.29
 30
0.0
  0
VERTEX
  8
TH_south_platte_nonumber
 10
612545.69
 20
4568817.72
 30
0.0
  0
VERTEX
  8
TH_south_platte_nonumber
 10
612479.86
 20
4568817.6
 30
0.0
  0
VERTEX
  8
TH_south_platte_nonumber
 10
612154.08
 20
4568826.56
 30
0.0
  0
SEQEND
  8
TH_south_platte_nonumber
  0
POLYLINE
  8
TH_south_platte_nonumber
 66
1
 40
29.9999845
 41
29.9999845
 62
7
 10
646013.22
 20
4565038.34
 30
0.0
  0
VERTEX
  8
TH_south_platte_nonumber
 10
646013.22
 20
4565038.34
 30
0.0
  0
VERTEX
  8
TH_south_platte_nonumber
 10
645908.78
 20
4565055.82
 30
0.0
  0
VERTEX
  8
TH_south_platte_nonumber
 10
645803.83
 20
4565068.44
 30
0.0
  0
VERTEX
  8
TH_south_platte_nonumber
 10
645598.21
 20
4565115.04
 30
0.0
  0
VERTEX
  8
TH_south_platte_nonumber
 10
645397.23
 20
4565137.44
 30
0.0
  0
VERTEX
  8
TH_south_platte_nonumber
 10
645207.41
 20
4565180.1
 30
0.0
  0
VERTEX
  8
TH_south_platte_nonumber
 10
645023.33
 20
4565206.53
 30
0.0
  0
VERTEX
  8
TH_south_platte_nonumber
 10
644930.29
 20
4565224.63
 30
0.0
  0
VERTEX
  8
TH_south_platte_nonumber
 10
644833.45
 20
4565232.31
 30
0.0
  0
VERTEX
  8
TH_south_platte_nonumber
 10
644736.68
 20
4565240.1
 30
0.0
  0
VERTEX
  8
TH_south_platte_nonumber
 10
644642.83
 20
4565261.89
 30
0.0
  0
VERTEX
  8
TH_south_platte_nonumber
 10
644547.58
 20
4565282.54
 30
0.0
  0
VERTEX
  8
TH_south_platte_nonumber
 10
644452.9
 20
4565291.05
 30
0.0
  0
VERTEX
  8
TH_south_platte_nonumber
 10
644359.2
 20
4565301.91
 30
0.0
  0
VERTEX
  8
TH_south_platte_nonumber
 10
644267.71
 20
4565320.25
 30
0.0
  0
VERTEX
  8
TH_south_platte_nonumber
 10
644176.71
 20
4565339.82
 30
0.0
  0
VERTEX
  8
TH_south_platte_nonumber
 10
644081.97
 20
4565355.37
 30
0.0
  0
VERTEX
  8
TH_south_platte_nonumber
 10
643795.16
 20
4565403.68
 30
0.0
  0
VERTEX
  8
TH_south_platte_nonumber
 10
643599.86
 20
4565441.21
 30
0.0
  0
VERTEX
  8
TH_south_platte_nonumber
 10
643403.23
 20
4565464.86
 30
0.0
  0
VERTEX
  8
TH_south_platte_nonumber
 10
643299.97
 20
4565485.6
 30
0.0
  0
VERTEX
  8
TH_south_platte_nonumber
 10
643102.17
 20
4565518.15
 30
0.0
  0
VERTEX
  8
TH_south_platte_nonumber
 10
642903.52
 20
4565555.6
 30
0.0
  0
VERTEX
  8
TH_south_platte_nonumber
 10
642607.48
 20
4565596.18
 30
0.0
  0
VERTEX
  8
TH_south_platte_nonumber
 10
642508.76
 20
4565605.98
 30
0.0
  0
VERTEX
  8
TH_south_platte_nonumber
 10
642410.44
 20
4565619.91
 30
0.0
  0
VERTEX
  8
TH_south_platte_nonumber
 10
642316.07
 20
4565644.61
 30
0.0
  0
VERTEX
  8
TH_south_platte_nonumber
 10
642125.85
 20
4565685.6
 30
0.0
  0
VERTEX
  8
TH_south_platte_nonumber
 10
642031.55
 20
4565709
 30
0.0
  0
VERTEX
  8
TH_south_platte_nonumber
 10
641939.27
 20
4565726.15
 30
0.0
  0
VERTEX
  8
TH_south_platte_nonumber
 10
641750.4
 20
4565744.26
 30
0.0
  0
VERTEX
  8
TH_south_platte_nonumber
 10
641562.76
 20
4565781.25
 30
0.0
  0
VERTEX
  8
TH_south_platte_nonumber
 10
641367.16
 20
4565805.43
 30
0.0
  0
VERTEX
  8
TH_south_platte_nonumber
 10
641175.13
 20
4565835.65
 30
0.0
  0
VERTEX
  8
TH_south_platte_nonumber
 10
640981.93
 20
4565870.55
 30
0.0
  0
VERTEX
  8
TH_south_platte_nonumber
 10
640781.32
 20
4565900.06
 30
0.0
  0
VERTEX
  8
TH_south_platte_nonumber
 10
640584.49
 20
4565936.15
 30
0.0
  0
VERTEX
  8
TH_south_platte_nonumber
 10
640178.42
 20
4566003.3
 30
0.0
  0
VERTEX
  8
TH_south_platte_nonumber
 10
639784.43
 20
4566077.2
 30
0.0
  0
VERTEX
  8
TH_south_platte_nonumber
 10
638746.85
 20
4566239.19
 30
0.0
  0
VERTEX
  8
TH_south_platte_nonumber
 10
638327.4
 20
4566314.93
 30
0.0
  0
VERTEX
  8
TH_south_platte_nonumber
 10
638127.13
 20
4566357.07
 30
0.0
  0
VERTEX
  8
TH_south_platte_nonumber
 10
637930.34
 20
4566390.39
 30
0.0
  0
VERTEX
  8
TH_south_platte_nonumber
 10
637517.55
 20
4566453.31
 30
0.0
  0
VERTEX
  8
TH_south_platte_nonumber
 10
637314.19
 20
4566478.63
 30
0.0
  0
VERTEX
  8
TH_south_platte_nonumber
 10
636892
 20
4566548.67
 30
0.0
  0
VERTEX
  8
TH_south_platte_nonumber
 10
636785.6
 20
4566570.3
 30
0.0
  0
VERTEX
  8
TH_south_platte_nonumber
 10
636569.64
 20
4566606.8
 30
0.0
  0
VERTEX
  8
TH_south_platte_nonumber
 10
636460.46
 20
4566630.44
 30
0.0
  0
VERTEX
  8
TH_south_platte_nonumber
 10
636129.52
 20
4566688.06
 30
0.0
  0
VERTEX
  8
TH_south_platte_nonumber
 10
635914.24
 20
4566715.03
 30
0.0
  0
VERTEX
  8
TH_south_platte_nonumber
 10
635592.16
 20
4566772.95
 30
0.0
  0
VERTEX
  8
TH_south_platte_nonumber
 10
635173.75
 20
4566841.12
 30
0.0
  0
VERTEX
  8
TH_south_platte_nonumber
 10
634755.15
 20
4566901.35
 30
0.0
  0
VERTEX
  8
TH_south_platte_nonumber
 10
634333.34
 20
4566969.2
 30
0.0
  0
VERTEX
  8
TH_south_platte_nonumber
 10
634121.09
 20
4567011.24
 30
0.0
  0
VERTEX
  8
TH_south_platte_nonumber
 10
633907.75
 20
4567044.39
 30
0.0
  0
VERTEX
  8
TH_south_platte_nonumber
 10
633497.6
 20
4567118.35
 30
0.0
  0
VERTEX
  8
TH_south_platte_nonumber
 10
633085.19
 20
4567183.5
 30
0.0
  0
VERTEX
  8
TH_south_platte_nonumber
 10
632693.11
 20
4567261.23
 30
0.0
  0
VERTEX
  8
TH_south_platte_nonumber
 10
632492.55
 20
4567285.53
 30
0.0
  0
VERTEX
  8
TH_south_platte_nonumber
 10
632296.56
 20
4567313.31
 30
0.0
  0
VERTEX
  8
TH_south_platte_nonumber
 10
632194.58
 20
4567331.75
 30
0.0
  0
VERTEX
  8
TH_south_platte_nonumber
 10
632096.74
 20
4567353.69
 30
0.0
  0
VERTEX
  8
TH_south_platte_nonumber
 10
631798.44
 20
4567408.34
 30
0.0
  0
VERTEX
  8
TH_south_platte_nonumber
 10
631701.77
 20
4567421.97
 30
0.0
  0
VERTEX
  8
TH_south_platte_nonumber
 10
631497.71
 20
4567441.27
 30
0.0
  0
VERTEX
  8
TH_south_platte_nonumber
 10
631291.95
 20
4567469.22
 30
0.0
  0
VERTEX
  8
TH_south_platte_nonumber
 10
631092.02
 20
4567506.7
 30
0.0
  0
VERTEX
  8
TH_south_platte_nonumber
 10
630888.59
 20
4567552.03
 30
0.0
  0
VERTEX
  8
TH_south_platte_nonumber
 10
630688.84
 20
4567584.18
 30
0.0
  0
VERTEX
  8
TH_south_platte_nonumber
 10
630585.73
 20
4567604.66
 30
0.0
  0
VERTEX
  8
TH_south_platte_nonumber
 10
630484.32
 20
4567619.26
 30
0.0
  0
VERTEX
  8
TH_south_platte_nonumber
 10
630381.4
 20
4567629.83
 30
0.0
  0
VERTEX
  8
TH_south_platte_nonumber
 10
630079.39
 20
4567675.02
 30
0.0
  0
VERTEX
  8
TH_south_platte_nonumber
 10
629980.87
 20
4567692.6
 30
0.0
  0
VERTEX
  8
TH_south_platte_nonumber
 10
629783.24
 20
4567736.78
 30
0.0
  0
VERTEX
  8
TH_south_platte_nonumber
 10
629366.16
 20
4567804.46
 30
0.0
  0
VERTEX
  8
TH_south_platte_nonumber
 10
629158.22
 20
4567846.53
 30
0.0
  0
VERTEX
  8
TH_south_platte_nonumber
 10
628848.68
 20
4567893.45
 30
0.0
  0
VERTEX
  8
TH_south_platte_nonumber
 10
628639.63
 20
4567915.06
 30
0.0
  0
VERTEX
  8
TH_south_platte_nonumber
 10
628431.96
 20
4567942.69
 30
0.0
  0
VERTEX
  8
TH_south_platte_nonumber
 10
628224.29
 20
4567976.24
 30
0.0
  0
VERTEX
  8
TH_south_platte_nonumber
 10
628012.9
 20
4568005.87
 30
0.0
  0
VERTEX
  8
TH_south_platte_nonumber
 10
627712.07
 20
4568071.44
 30
0.0
  0
VERTEX
  8
TH_south_platte_nonumber
 10
627615.18
 20
4568087.95
 30
0.0
  0
VERTEX
  8
TH_south_platte_nonumber
 10
627514.17
 20
4568099.51
 30
0.0
  0
VERTEX
  8
TH_south_platte_nonumber
 10
627413.02
 20
4568119.75
 30
0.0
  0
VERTEX
  8
TH_south_platte_nonumber
 10
627313.96
 20
4568145.18
 30
0.0
  0
VERTEX
  8
TH_south_platte_nonumber
 10
627110.76
 20
4568181.82
 30
0.0
  0
VERTEX
  8
TH_south_platte_nonumber
 10
627011.78
 20
4568204.86
 30
0.0
  0
VERTEX
  8
TH_south_platte_nonumber
 10
626655.04
 20
4568270.92
 30
0.0
  0
SEQEND
  8
TH_south_platte_nonumber
  0
POLYLINE
  8
TH_south_platte_nonumber
 66
1
 40
29.9999845
 41
29.9999845
 62
7
 10
654366.32
 20
4564044.16
 30
0.0
  0
VERTEX
  8
TH_south_platte_nonumber
 10
654366.32
 20
4564044.16
 30
0.0
  0
VERTEX
  8
TH_south_platte_nonumber
 10
654280.81
 20
4564036.33
 30
0.0
  0
VERTEX
  8
TH_south_platte_nonumber
 10
654265.76
 20
4564038.48
 30
0.0
  0
VERTEX
  8
TH_south_platte_nonumber
 10
654237.1
 20
4564049.1
 30
0.0
  0
VERTEX
  8
TH_south_platte_nonumber
 10
654159.21
 20
4564100.23
 30
0.0
  0
VERTEX
  8
TH_south_platte_nonumber
 10
654132.82
 20
4564109.38
 30
0.0
  0
VERTEX
  8
TH_south_platte_nonumber
 10
654105.07
 20
4564114.5
 30
0.0
  0
VERTEX
  8
TH_south_platte_nonumber
 10
653986.25
 20
4564133.07
 30
0.0
  0
VERTEX
  8
TH_south_platte_nonumber
 10
653940.21
 20
4564134.53
 30
0.0
  0
VERTEX
  8
TH_south_platte_nonumber
 10
653924.64
 20
4564134.52
 30
0.0
  0
VERTEX
  8
TH_south_platte_nonumber
 10
653893.95
 20
4564136.25
 30
0.0
  0
VERTEX
  8
TH_south_platte_nonumber
 10
653791.17
 20
4564149.99
 30
0.0
  0
VERTEX
  8
TH_south_platte_nonumber
 10
653715.26
 20
4564148.83
 30
0.0
  0
VERTEX
  8
TH_south_platte_nonumber
 10
653680.01
 20
4564151.08
 30
0.0
  0
VERTEX
  8
TH_south_platte_nonumber
 10
653565.42
 20
4564175.98
 30
0.0
  0
VERTEX
  8
TH_south_platte_nonumber
 10
653531.82
 20
4564177.34
 30
0.0
  0
VERTEX
  8
TH_south_platte_nonumber
 10
653497.5
 20
4564176.5
 30
0.0
  0
VERTEX
  8
TH_south_platte_nonumber
 10
653493.72
 20
4564176.42
 30
0.0
  0
VERTEX
  8
TH_south_platte_nonumber
 10
653490.02
 20
4564176.48
 30
0.0
  0
VERTEX
  8
TH_south_platte_nonumber
 10
653376.69
 20
4564188.67
 30
0.0
  0
VERTEX
  8
TH_south_platte_nonumber
 10
653257.38
 20
4564205.95
 30
0.0
  0
VERTEX
  8
TH_south_platte_nonumber
 10
652999.15
 20
4564244.44
 30
0.0
  0
VERTEX
  8
TH_south_platte_nonumber
 10
652860.1
 20
4564257.9
 30
0.0
  0
VERTEX
  8
TH_south_platte_nonumber
 10
652791.98
 20
4564267.96
 30
0.0
  0
VERTEX
  8
TH_south_platte_nonumber
 10
652594.69
 20
4564282.18
 30
0.0
  0
VERTEX
  8
TH_south_platte_nonumber
 10
652460.96
 20
4564287.79
 30
0.0
  0
VERTEX
  8
TH_south_platte_nonumber
 10
652396.39
 20
4564297.36
 30
0.0
  0
VERTEX
  8
TH_south_platte_nonumber
 10
652329.76
 20
4564312.27
 30
0.0
  0
VERTEX
  8
TH_south_platte_nonumber
 10
652262.38
 20
4564321.68
 30
0.0
  0
VERTEX
  8
TH_south_platte_nonumber
 10
652240.76
 20
4564321.73
 30
0.0
  0
VERTEX
  8
TH_south_platte_nonumber
 10
652173.66
 20
4564319.73
 30
0.0
  0
VERTEX
  8
TH_south_platte_nonumber
 10
652049.55
 20
4564327.88
 30
0.0
  0
VERTEX
  8
TH_south_platte_nonumber
 10
651964.15
 20
4564325.2
 30
0.0
  0
VERTEX
  8
TH_south_platte_nonumber
 10
651897.06
 20
4564328.95
 30
0.0
  0
VERTEX
  8
TH_south_platte_nonumber
 10
651831.13
 20
4564343.67
 30
0.0
  0
VERTEX
  8
TH_south_platte_nonumber
 10
651767.64
 20
4564365.27
 30
0.0
  0
VERTEX
  8
TH_south_platte_nonumber
 10
651711.09
 20
4564380.41
 30
0.0
  0
VERTEX
  8
TH_south_platte_nonumber
 10
651581.18
 20
4564393.99
 30
0.0
  0
VERTEX
  8
TH_south_platte_nonumber
 10
651463.49
 20
4564415.79
 30
0.0
  0
VERTEX
  8
TH_south_platte_nonumber
 10
651396.19
 20
4564419.85
 30
0.0
  0
VERTEX
  8
TH_south_platte_nonumber
 10
651333.21
 20
4564427.57
 30
0.0
  0
VERTEX
  8
TH_south_platte_nonumber
 10
651271.62
 20
4564440.83
 30
0.0
  0
VERTEX
  8
TH_south_platte_nonumber
 10
651207.9
 20
4564448.49
 30
0.0
  0
VERTEX
  8
TH_south_platte_nonumber
 10
651150.76
 20
4564450.07
 30
0.0
  0
VERTEX
  8
TH_south_platte_nonumber
 10
651035.05
 20
4564464.38
 30
0.0
  0
VERTEX
  8
TH_south_platte_nonumber
 10
650921.02
 20
4564470.43
 30
0.0
  0
VERTEX
  8
TH_south_platte_nonumber
 10
650809.45
 20
4564496.44
 30
0.0
  0
VERTEX
  8
TH_south_platte_nonumber
 10
650610.71
 20
4564530.87
 30
0.0
  0
VERTEX
  8
TH_south_platte_nonumber
 10
650489.37
 20
4564520.45
 30
0.0
  0
VERTEX
  8
TH_south_platte_nonumber
 10
650232.49
 20
4564553.71
 30
0.0
  0
VERTEX
  8
TH_south_platte_nonumber
 10
650196.63
 20
4564555.39
 30
0.0
  0
VERTEX
  8
TH_south_platte_nonumber
 10
650139.87
 20
4564554.26
 30
0.0
  0
VERTEX
  8
TH_south_platte_nonumber
 10
650120.12
 20
4564555
 30
0.0
  0
VERTEX
  8
TH_south_platte_nonumber
 10
650003.86
 20
4564575.61
 30
0.0
  0
VERTEX
  8
TH_south_platte_nonumber
 10
649875.59
 20
4564587.02
 30
0.0
  0
VERTEX
  8
TH_south_platte_nonumber
 10
649750.81
 20
4564607.07
 30
0.0
  0
VERTEX
  8
TH_south_platte_nonumber
 10
649624.98
 20
4564620.59
 30
0.0
  0
VERTEX
  8
TH_south_platte_nonumber
 10
649560.97
 20
4564621.65
 30
0.0
  0
VERTEX
  8
TH_south_platte_nonumber
 10
649499.93
 20
4564627.44
 30
0.0
  0
VERTEX
  8
TH_south_platte_nonumber
 10
649444.35
 20
4564643.26
 30
0.0
  0
VERTEX
  8
TH_south_platte_nonumber
 10
649382.07
 20
4564652.88
 30
0.0
  0
VERTEX
  8
TH_south_platte_nonumber
 10
649316.88
 20
4564654.02
 30
0.0
  0
VERTEX
  8
TH_south_platte_nonumber
 10
649250.02
 20
4564659.88
 30
0.0
  0
VERTEX
  8
TH_south_platte_nonumber
 10
648991.8
 20
4564703.1
 30
0.0
  0
VERTEX
  8
TH_south_platte_nonumber
 10
648861.32
 20
4564715.89
 30
0.0
  0
VERTEX
  8
TH_south_platte_nonumber
 10
648709.26
 20
4564735.99
 30
0.0
  0
VERTEX
  8
TH_south_platte_nonumber
 10
648383.39
 20
4564765.32
 30
0.0
  0
VERTEX
  8
TH_south_platte_nonumber
 10
648305.87
 20
4564776.46
 30
0.0
  0
VERTEX
  8
TH_south_platte_nonumber
 10
648214.86
 20
4564782.66
 30
0.0
  0
VERTEX
  8
TH_south_platte_nonumber
 10
648132.56
 20
4564781.6
 30
0.0
  0
VERTEX
  8
TH_south_platte_nonumber
 10
648067.38
 20
4564784.76
 30
0.0
  0
VERTEX
  8
TH_south_platte_nonumber
 10
647913.12
 20
4564810.16
 30
0.0
  0
VERTEX
  8
TH_south_platte_nonumber
 10
647835.24
 20
4564828.24
 30
0.0
  0
VERTEX
  8
TH_south_platte_nonumber
 10
647738.98
 20
4564839.92
 30
0.0
  0
VERTEX
  8
TH_south_platte_nonumber
 10
647686.39
 20
4564839.57
 30
0.0
  0
VERTEX
  8
TH_south_platte_nonumber
 10
647649.72
 20
4564841.52
 30
0.0
  0
VERTEX
  8
TH_south_platte_nonumber
 10
647497.96
 20
4564872.97
 30
0.0
  0
VERTEX
  8
TH_south_platte_nonumber
 10
647420.19
 20
4564876.79
 30
0.0
  0
VERTEX
  8
TH_south_platte_nonumber
 10
647349.09
 20
4564885.31
 30
0.0
  0
VERTEX
  8
TH_south_platte_nonumber
 10
647281.58
 20
4564899.06
 30
0.0
  0
VERTEX
  8
TH_south_platte_nonumber
 10
647075.36
 20
4564928.7
 30
0.0
  0
VERTEX
  8
TH_south_platte_nonumber
 10
646706.75
 20
4564956.21
 30
0.0
  0
VERTEX
  8
TH_south_platte_nonumber
 10
646499.72
 20
4564983.99
 30
0.0
  0
VERTEX
  8
TH_south_platte_nonumber
 10
646367
 20
4565006.87
 30
0.0
  0
VERTEX
  8
TH_south_platte_nonumber
 10
646224.35
 20
4565015.25
 30
0.0
  0
VERTEX
  8
TH_south_platte_nonumber
 10
646090.73
 20
4565033.13
 30
0.0
  0
VERTEX
  8
TH_south_platte_nonumber
 10
645956.92
 20
4565036.33
 30
0.0
  0
VERTEX
  8
TH_south_platte_nonumber
 10
645692.28
 20
4565083.54
 30
0.0
  0
VERTEX
  8
TH_south_platte_nonumber
 10
645624.38
 20
4565089.04
 30
0.0
  0
SEQEND
  8
TH_south_platte_nonumber
  0
POLYLINE
  8
TH_south_platte_nonumber
 66
1
 40
29.9999845
 41
29.9999845
 62
7
 10
664712.53
 20
4559573.94
 30
0.0
  0
VERTEX
  8
TH_south_platte_nonumber
 10
664712.53
 20
4559573.94
 30
0.0
  0
VERTEX
  8
TH_south_platte_nonumber
 10
664585.58
 20
4559588.82
 30
0.0
  0
VERTEX
  8
TH_south_platte_nonumber
 10
664537.46
 20
4559586.22
 30
0.0
  0
VERTEX
  8
TH_south_platte_nonumber
 10
664450.69
 20
4559570.83
 30
0.0
  0
VERTEX
  8
TH_south_platte_nonumber
 10
664397.85
 20
4559566.03
 30
0.0
  0
VERTEX
  8
TH_south_platte_nonumber
 10
664249.26
 20
4559580.54
 30
0.0
  0
VERTEX
  8
TH_south_platte_nonumber
 10
664144.95
 20
4559570.91
 30
0.0
  0
VERTEX
  8
TH_south_platte_nonumber
 10
664105.9
 20
4559572.84
 30
0.0
  0
VERTEX
  8
TH_south_platte_nonumber
 10
664034.11
 20
4559589.65
 30
0.0
  0
VERTEX
  8
TH_south_platte_nonumber
 10
664002.3
 20
4559603.07
 30
0.0
  0
VERTEX
  8
TH_south_platte_nonumber
 10
663975.11
 20
4559621.22
 30
0.0
  0
VERTEX
  8
TH_south_platte_nonumber
 10
663957.96
 20
4559648.05
 30
0.0
  0
VERTEX
  8
TH_south_platte_nonumber
 10
663950.6
 20
4559675.52
 30
0.0
  0
VERTEX
  8
TH_south_platte_nonumber
 10
663956.47
 20
4559760.81
 30
0.0
  0
VERTEX
  8
TH_south_platte_nonumber
 10
663949.01
 20
4559806.17
 30
0.0
  0
VERTEX
  8
TH_south_platte_nonumber
 10
663921.32
 20
4559861.25
 30
0.0
  0
VERTEX
  8
TH_south_platte_nonumber
 10
663899.99
 20
4559884.74
 30
0.0
  0
VERTEX
  8
TH_south_platte_nonumber
 10
663874.13
 20
4559899.22
 30
0.0
  0
VERTEX
  8
TH_south_platte_nonumber
 10
663837.96
 20
4559903.42
 30
0.0
  0
VERTEX
  8
TH_south_platte_nonumber
 10
663795.62
 20
4559901.73
 30
0.0
  0
VERTEX
  8
TH_south_platte_nonumber
 10
663761.46
 20
4559905.52
 30
0.0
  0
VERTEX
  8
TH_south_platte_nonumber
 10
663731.53
 20
4559918.05
 30
0.0
  0
VERTEX
  8
TH_south_platte_nonumber
 10
663708.57
 20
4559939.63
 30
0.0
  0
VERTEX
  8
TH_south_platte_nonumber
 10
663674.56
 20
4560000.37
 30
0.0
  0
VERTEX
  8
TH_south_platte_nonumber
 10
663653.87
 20
4560026.82
 30
0.0
  0
VERTEX
  8
TH_south_platte_nonumber
 10
663628.45
 20
4560047.77
 30
0.0
  0
VERTEX
  8
TH_south_platte_nonumber
 10
663538.15
 20
4560103.19
 30
0.0
  0
VERTEX
  8
TH_south_platte_nonumber
 10
663481.63
 20
4560143.27
 30
0.0
  0
VERTEX
  8
TH_south_platte_nonumber
 10
663367.66
 20
4560181.5
 30
0.0
  0
VERTEX
  8
TH_south_platte_nonumber
 10
663268.12
 20
4560227.62
 30
0.0
  0
VERTEX
  8
TH_south_platte_nonumber
 10
663122.42
 20
4560272.8
 30
0.0
  0
VERTEX
  8
TH_south_platte_nonumber
 10
663057.81
 20
4560308.01
 30
0.0
  0
VERTEX
  8
TH_south_platte_nonumber
 10
662988.09
 20
4560337.48
 30
0.0
  0
VERTEX
  8
TH_south_platte_nonumber
 10
662916.32
 20
4560360.95
 30
0.0
  0
VERTEX
  8
TH_south_platte_nonumber
 10
662774.98
 20
4560415.93
 30
0.0
  0
VERTEX
  8
TH_south_platte_nonumber
 10
662555.42
 20
4560509.75
 30
0.0
  0
VERTEX
  8
TH_south_platte_nonumber
 10
662477.68
 20
4560538.15
 30
0.0
  0
VERTEX
  8
TH_south_platte_nonumber
 10
662336.65
 20
4560602.44
 30
0.0
  0
VERTEX
  8
TH_south_platte_nonumber
 10
662179.72
 20
4560665.29
 30
0.0
  0
VERTEX
  8
TH_south_platte_nonumber
 10
661722.97
 20
4560863.84
 30
0.0
  0
VERTEX
  8
TH_south_platte_nonumber
 10
661574.53
 20
4560935.45
 30
0.0
  0
VERTEX
  8
TH_south_platte_nonumber
 10
661493.19
 20
4560970.7
 30
0.0
  0
VERTEX
  8
TH_south_platte_nonumber
 10
661420.22
 20
4561007.25
 30
0.0
  0
VERTEX
  8
TH_south_platte_nonumber
 10
661345.75
 20
4561038.17
 30
0.0
  0
VERTEX
  8
TH_south_platte_nonumber
 10
661264.28
 20
4561065.01
 30
0.0
  0
VERTEX
  8
TH_south_platte_nonumber
 10
661187.36
 20
4561096.43
 30
0.0
  0
VERTEX
  8
TH_south_platte_nonumber
 10
661113.79
 20
4561132.86
 30
0.0
  0
VERTEX
  8
TH_south_platte_nonumber
 10
660963.59
 20
4561199.25
 30
0.0
  0
VERTEX
  8
TH_south_platte_nonumber
 10
660815.55
 20
4561273.68
 30
0.0
  0
VERTEX
  8
TH_south_platte_nonumber
 10
660599.92
 20
4561372.98
 30
0.0
  0
VERTEX
  8
TH_south_platte_nonumber
 10
660460.81
 20
4561425.54
 30
0.0
  0
VERTEX
  8
TH_south_platte_nonumber
 10
660395.48
 20
4561456.53
 30
0.0
  0
VERTEX
  8
TH_south_platte_nonumber
 10
660250.46
 20
4561516.24
 30
0.0
  0
VERTEX
  8
TH_south_platte_nonumber
 10
660114.06
 20
4561592.03
 30
0.0
  0
VERTEX
  8
TH_south_platte_nonumber
 10
660048.87
 20
4561621.15
 30
0.0
  0
VERTEX
  8
TH_south_platte_nonumber
 10
659978.36
 20
4561646.85
 30
0.0
  0
VERTEX
  8
TH_south_platte_nonumber
 10
659853.66
 20
4561701.7
 30
0.0
  0
VERTEX
  8
TH_south_platte_nonumber
 10
659792.8
 20
4561720.25
 30
0.0
  0
VERTEX
  8
TH_south_platte_nonumber
 10
659680.25
 20
4561767.8
 30
0.0
  0
VERTEX
  8
TH_south_platte_nonumber
 10
659447.19
 20
4561845.99
 30
0.0
  0
VERTEX
  8
TH_south_platte_nonumber
 10
659393.9
 20
4561873.18
 30
0.0
  0
VERTEX
  8
TH_south_platte_nonumber
 10
659339.48
 20
4561906.5
 30
0.0
  0
VERTEX
  8
TH_south_platte_nonumber
 10
659281.84
 20
4561936.83
 30
0.0
  0
VERTEX
  8
TH_south_platte_nonumber
 10
659097.55
 20
4562013.58
 30
0.0
  0
VERTEX
  8
TH_south_platte_nonumber
 10
659037.38
 20
4562034.66
 30
0.0
  0
VERTEX
  8
TH_south_platte_nonumber
 10
658818.39
 20
4562135.58
 30
0.0
  0
VERTEX
  8
TH_south_platte_nonumber
 10
658712.96
 20
4562189.88
 30
0.0
  0
VERTEX
  8
TH_south_platte_nonumber
 10
658480.94
 20
4562287.2
 30
0.0
  0
VERTEX
  8
TH_south_platte_nonumber
 10
658424.39
 20
4562315.61
 30
0.0
  0
VERTEX
  8
TH_south_platte_nonumber
 10
658303.34
 20
4562350.59
 30
0.0
  0
VERTEX
  8
TH_south_platte_nonumber
 10
658248.69
 20
4562378.29
 30
0.0
  0
VERTEX
  8
TH_south_platte_nonumber
 10
658097.29
 20
4562467.38
 30
0.0
  0
VERTEX
  8
TH_south_platte_nonumber
 10
658071.6
 20
4562479.47
 30
0.0
  0
VERTEX
  8
TH_south_platte_nonumber
 10
657983.42
 20
4562500.15
 30
0.0
  0
VERTEX
  8
TH_south_platte_nonumber
 10
657927.59
 20
4562518.51
 30
0.0
  0
VERTEX
  8
TH_south_platte_nonumber
 10
657870.92
 20
4562545.66
 30
0.0
  0
VERTEX
  8
TH_south_platte_nonumber
 10
657769.19
 20
4562603.14
 30
0.0
  0
VERTEX
  8
TH_south_platte_nonumber
 10
657709.66
 20
4562628.43
 30
0.0
  0
VERTEX
  8
TH_south_platte_nonumber
 10
657645.36
 20
4562650.9
 30
0.0
  0
VERTEX
  8
TH_south_platte_nonumber
 10
657516.77
 20
4562684.32
 30
0.0
  0
VERTEX
  8
TH_south_platte_nonumber
 10
657484.64
 20
4562697.99
 30
0.0
  0
VERTEX
  8
TH_south_platte_nonumber
 10
657405.42
 20
4562751.96
 30
0.0
  0
VERTEX
  8
TH_south_platte_nonumber
 10
657234.92
 20
4562847.79
 30
0.0
  0
VERTEX
  8
TH_south_platte_nonumber
 10
657101.58
 20
4562882.88
 30
0.0
  0
VERTEX
  8
TH_south_platte_nonumber
 10
657043.29
 20
4562907.78
 30
0.0
  0
VERTEX
  8
TH_south_platte_nonumber
 10
656916.17
 20
4562948.61
 30
0.0
  0
VERTEX
  8
TH_south_platte_nonumber
 10
656799.09
 20
4563005.89
 30
0.0
  0
VERTEX
  8
TH_south_platte_nonumber
 10
656622.62
 20
4563080.05
 30
0.0
  0
VERTEX
  8
TH_south_platte_nonumber
 10
656518.66
 20
4563130.83
 30
0.0
  0
VERTEX
  8
TH_south_platte_nonumber
 10
656406.49
 20
4563178.87
 30
0.0
  0
VERTEX
  8
TH_south_platte_nonumber
 10
656302.91
 20
4563235.84
 30
0.0
  0
VERTEX
  8
TH_south_platte_nonumber
 10
656185.57
 20
4563293.12
 30
0.0
  0
VERTEX
  8
TH_south_platte_nonumber
 10
656132.26
 20
4563324.19
 30
0.0
  0
VERTEX
  8
TH_south_platte_nonumber
 10
655957.75
 20
4563389.79
 30
0.0
  0
VERTEX
  8
TH_south_platte_nonumber
 10
655865.99
 20
4563418.35
 30
0.0
  0
VERTEX
  8
TH_south_platte_nonumber
 10
655789.88
 20
4563464.15
 30
0.0
  0
VERTEX
  8
TH_south_platte_nonumber
 10
655760.05
 20
4563477.25
 30
0.0
  0
VERTEX
  8
TH_south_platte_nonumber
 10
655665.18
 20
4563503.16
 30
0.0
  0
VERTEX
  8
TH_south_platte_nonumber
 10
655610.49
 20
4563527.91
 30
0.0
  0
VERTEX
  8
TH_south_platte_nonumber
 10
655557.55
 20
4563556.34
 30
0.0
  0
VERTEX
  8
TH_south_platte_nonumber
 10
655506.67
 20
4563577.57
 30
0.0
  0
VERTEX
  8
TH_south_platte_nonumber
 10
655395.85
 20
4563639.54
 30
0.0
  0
VERTEX
  8
TH_south_platte_nonumber
 10
655267.62
 20
4563685.31
 30
0.0
  0
VERTEX
  8
TH_south_platte_nonumber
 10
655203.68
 20
4563718.36
 30
0.0
  0
VERTEX
  8
TH_south_platte_nonumber
 10
655141.74
 20
4563743.78
 30
0.0
  0
VERTEX
  8
TH_south_platte_nonumber
 10
655075.26
 20
4563763.73
 30
0.0
  0
VERTEX
  8
TH_south_platte_nonumber
 10
655009.78
 20
4563790.99
 30
0.0
  0
VERTEX
  8
TH_south_platte_nonumber
 10
654883.97
 20
4563854.32
 30
0.0
  0
VERTEX
  8
TH_south_platte_nonumber
 10
654821.2
 20
4563877.47
 30
0.0
  0
VERTEX
  8
TH_south_platte_nonumber
 10
654751.9
 20
4563894.45
 30
0.0
  0
VERTEX
  8
TH_south_platte_nonumber
 10
654689.18
 20
4563918.25
 30
0.0
  0
VERTEX
  8
TH_south_platte_nonumber
 10
654630.5
 20
4563946.67
 30
0.0
  0
VERTEX
  8
TH_south_platte_nonumber
 10
654496.49
 20
4563999.08
 30
0.0
  0
VERTEX
  8
TH_south_platte_nonumber
 10
654435.24
 20
4564031.69
 30
0.0
  0
VERTEX
  8
TH_south_platte_nonumber
 10
654401.55
 20
4564041.65
 30
0.0
  0
VERTEX
  8
TH_south_platte_nonumber
 10
654368.53
 20
4564044.13
 30
0.0
  0
SEQEND
  8
TH_south_platte_nonumber
  0
POLYLINE
  8
TH_south_platte_nonumber
 66
1
 40
29.9999845
 41
29.9999845
 62
7
 10
667272.71
 20
4559586.54
 30
0.0
  0
VERTEX
  8
TH_south_platte_nonumber
 10
667272.71
 20
4559586.54
 30
0.0
  0
VERTEX
  8
TH_south_platte_nonumber
 10
667214.13
 20
4559584.06
 30
0.0
  0
VERTEX
  8
TH_south_platte_nonumber
 10
667158.06
 20
4559586.32
 30
0.0
  0
VERTEX
  8
TH_south_platte_nonumber
 10
667075.78
 20
4559589.91
 30
0.0
  0
VERTEX
  8
TH_south_platte_nonumber
 10
666987.68
 20
4559584.22
 30
0.0
  0
VERTEX
  8
TH_south_platte_nonumber
 10
666900.63
 20
4559579.41
 30
0.0
  0
VERTEX
  8
TH_south_platte_nonumber
 10
666821.42
 20
4559582.56
 30
0.0
  0
VERTEX
  8
TH_south_platte_nonumber
 10
666740.49
 20
4559584.86
 30
0.0
  0
VERTEX
  8
TH_south_platte_nonumber
 10
666659.6
 20
4559583.39
 30
0.0
  0
VERTEX
  8
TH_south_platte_nonumber
 10
666383.16
 20
4559560.89
 30
0.0
  0
VERTEX
  8
TH_south_platte_nonumber
 10
666288.45
 20
4559569.73
 30
0.0
  0
VERTEX
  8
TH_south_platte_nonumber
 10
666206.13
 20
4559582.02
 30
0.0
  0
VERTEX
  8
TH_south_platte_nonumber
 10
666146.67
 20
4559584.68
 30
0.0
  0
VERTEX
  8
TH_south_platte_nonumber
 10
665899.37
 20
4559579.57
 30
0.0
  0
VERTEX
  8
TH_south_platte_nonumber
 10
665798.14
 20
4559582.18
 30
0.0
  0
VERTEX
  8
TH_south_platte_nonumber
 10
665645.47
 20
4559592.15
 30
0.0
  0
VERTEX
  8
TH_south_platte_nonumber
 10
665586.69
 20
4559586.52
 30
0.0
  0
VERTEX
  8
TH_south_platte_nonumber
 10
665499.03
 20
4559571.46
 30
0.0
  0
VERTEX
  8
TH_south_platte_nonumber
 10
665429.37
 20
4559567.03
 30
0.0
  0
VERTEX
  8
TH_south_platte_nonumber
 10
665298.53
 20
4559575.89
 30
0.0
  0
VERTEX
  8
TH_south_platte_nonumber
 10
665163.27
 20
4559572.28
 30
0.0
  0
VERTEX
  8
TH_south_platte_nonumber
 10
665056.68
 20
4559574.11
 30
0.0
  0
VERTEX
  8
TH_south_platte_nonumber
 10
664838.03
 20
4559561.72
 30
0.0
  0
VERTEX
  8
TH_south_platte_nonumber
 10
664715.07
 20
4559573.59
 30
0.0
  0
SEQEND
  8
TH_south_platte_nonumber
  0
POLYLINE
  8
TH_south_platte_nonumber
 66
1
 40
29.9999845
 41
29.9999845
 62
7
 10
670683.48
 20
4560077.06
 30
0.0
  0
VERTEX
  8
TH_south_platte_nonumber
 10
670683.48
 20
4560077.06
 30
0.0
  0
VERTEX
  8
TH_south_platte_nonumber
 10
670639.33
 20
4560065.59
 30
0.0
  0
VERTEX
  8
TH_south_platte_nonumber
 10
670595.98
 20
4560058.63
 30
0.0
  0
VERTEX
  8
TH_south_platte_nonumber
 10
670428
 20
4560041.85
 30
0.0
  0
VERTEX
  8
TH_south_platte_nonumber
 10
670252.8
 20
4560019.41
 30
0.0
  0
VERTEX
  8
TH_south_platte_nonumber
 10
670082.43
 20
4560000.83
 30
0.0
  0
VERTEX
  8
TH_south_platte_nonumber
 10
669904.97
 20
4559968.63
 30
0.0
  0
VERTEX
  8
TH_south_platte_nonumber
 10
669719.73
 20
4559943.11
 30
0.0
  0
VERTEX
  8
TH_south_platte_nonumber
 10
669528.82
 20
4559892.82
 30
0.0
  0
VERTEX
  8
TH_south_platte_nonumber
 10
669229.71
 20
4559837.21
 30
0.0
  0
VERTEX
  8
TH_south_platte_nonumber
 10
669027.37
 20
4559819.28
 30
0.0
  0
VERTEX
  8
TH_south_platte_nonumber
 10
668929.88
 20
4559804.36
 30
0.0
  0
VERTEX
  8
TH_south_platte_nonumber
 10
668732.21
 20
4559785.23
 30
0.0
  0
VERTEX
  8
TH_south_platte_nonumber
 10
668536.9
 20
4559756.04
 30
0.0
  0
VERTEX
  8
TH_south_platte_nonumber
 10
668437.31
 20
4559744.31
 30
0.0
  0
VERTEX
  8
TH_south_platte_nonumber
 10
668335.37
 20
4559726.98
 30
0.0
  0
VERTEX
  8
TH_south_platte_nonumber
 10
668127.36
 20
4559699.36
 30
0.0
  0
VERTEX
  8
TH_south_platte_nonumber
 10
667927.09
 20
4559667.49
 30
0.0
  0
VERTEX
  8
TH_south_platte_nonumber
 10
667735.07
 20
4559646.5
 30
0.0
  0
VERTEX
  8
TH_south_platte_nonumber
 10
667541.93
 20
4559615.31
 30
0.0
  0
VERTEX
  8
TH_south_platte_nonumber
 10
667358.9
 20
4559597.53
 30
0.0
  0
VERTEX
  8
TH_south_platte_nonumber
 10
667275.65
 20
4559586.87
 30
0.0
  0
SEQEND
  8
TH_south_platte_nonumber
  0
POLYLINE
  8
TH_south_platte_nonumber
 66
1
 40
29.9999845
 41
29.9999845
 62
7
 10
678382.87
 20
4558740.96
 30
0.0
  0
VERTEX
  8
TH_south_platte_nonumber
 10
678382.87
 20
4558740.96
 30
0.0
  0
VERTEX
  8
TH_south_platte_nonumber
 10
678181.52
 20
4558771.15
 30
0.0
  0
VERTEX
  8
TH_south_platte_nonumber
 10
677993.16
 20
4558804.25
 30
0.0
  0
VERTEX
  8
TH_south_platte_nonumber
 10
677822.44
 20
4558845.9
 30
0.0
  0
VERTEX
  8
TH_south_platte_nonumber
 10
677642.59
 20
4558861.11
 30
0.0
  0
VERTEX
  8
TH_south_platte_nonumber
 10
677557.67
 20
4558878.77
 30
0.0
  0
VERTEX
  8
TH_south_platte_nonumber
 10
677471.99
 20
4558903.32
 30
0.0
  0
VERTEX
  8
TH_south_platte_nonumber
 10
677286.23
 20
4558940.13
 30
0.0
  0
VERTEX
  8
TH_south_platte_nonumber
 10
677104.98
 20
4558984
 30
0.0
  0
VERTEX
  8
TH_south_platte_nonumber
 10
676916.57
 20
4559024.16
 30
0.0
  0
VERTEX
  8
TH_south_platte_nonumber
 10
676718.34
 20
4559057.17
 30
0.0
  0
VERTEX
  8
TH_south_platte_nonumber
 10
676622.61
 20
4559077.99
 30
0.0
  0
VERTEX
  8
TH_south_platte_nonumber
 10
676526.28
 20
4559091.35
 30
0.0
  0
VERTEX
  8
TH_south_platte_nonumber
 10
676428.54
 20
4559102.46
 30
0.0
  0
VERTEX
  8
TH_south_platte_nonumber
 10
676332.39
 20
4559120.89
 30
0.0
  0
VERTEX
  8
TH_south_platte_nonumber
 10
676240.44
 20
4559143.39
 30
0.0
  0
VERTEX
  8
TH_south_platte_nonumber
 10
676146.47
 20
4559161.36
 30
0.0
  0
VERTEX
  8
TH_south_platte_nonumber
 10
675767.47
 20
4559229.52
 30
0.0
  0
VERTEX
  8
TH_south_platte_nonumber
 10
675399.18
 20
4559307.88
 30
0.0
  0
VERTEX
  8
TH_south_platte_nonumber
 10
675214.97
 20
4559342.93
 30
0.0
  0
VERTEX
  8
TH_south_platte_nonumber
 10
675028.01
 20
4559372.6
 30
0.0
  0
VERTEX
  8
TH_south_platte_nonumber
 10
674933.55
 20
4559390.54
 30
0.0
  0
VERTEX
  8
TH_south_platte_nonumber
 10
674841.28
 20
4559413.01
 30
0.0
  0
VERTEX
  8
TH_south_platte_nonumber
 10
674454.56
 20
4559493.14
 30
0.0
  0
VERTEX
  8
TH_south_platte_nonumber
 10
674359.13
 20
4559515.52
 30
0.0
  0
VERTEX
  8
TH_south_platte_nonumber
 10
674265.08
 20
4559541.72
 30
0.0
  0
VERTEX
  8
TH_south_platte_nonumber
 10
674168.92
 20
4559563.16
 30
0.0
  0
VERTEX
  8
TH_south_platte_nonumber
 10
674069.19
 20
4559574.9
 30
0.0
  0
VERTEX
  8
TH_south_platte_nonumber
 10
673969.76
 20
4559591.05
 30
0.0
  0
VERTEX
  8
TH_south_platte_nonumber
 10
673873.74
 20
4559613.49
 30
0.0
  0
VERTEX
  8
TH_south_platte_nonumber
 10
673584.11
 20
4559663.35
 30
0.0
  0
VERTEX
  8
TH_south_platte_nonumber
 10
673395.35
 20
4559707.09
 30
0.0
  0
VERTEX
  8
TH_south_platte_nonumber
 10
673202.31
 20
4559739.02
 30
0.0
  0
VERTEX
  8
TH_south_platte_nonumber
 10
673109.46
 20
4559759.34
 30
0.0
  0
VERTEX
  8
TH_south_platte_nonumber
 10
672922.86
 20
4559789.49
 30
0.0
  0
VERTEX
  8
TH_south_platte_nonumber
 10
672747.19
 20
4559831.24
 30
0.0
  0
VERTEX
  8
TH_south_platte_nonumber
 10
672560.49
 20
4559865.48
 30
0.0
  0
VERTEX
  8
TH_south_platte_nonumber
 10
672378.04
 20
4559902.06
 30
0.0
  0
VERTEX
  8
TH_south_platte_nonumber
 10
672196.21
 20
4559943.83
 30
0.0
  0
VERTEX
  8
TH_south_platte_nonumber
 10
672008.66
 20
4559985.25
 30
0.0
  0
VERTEX
  8
TH_south_platte_nonumber
 10
671817.26
 20
4560019.13
 30
0.0
  0
VERTEX
  8
TH_south_platte_nonumber
 10
671632.43
 20
4560051.48
 30
0.0
  0
VERTEX
  8
TH_south_platte_nonumber
 10
671447.25
 20
4560072.16
 30
0.0
  0
VERTEX
  8
TH_south_platte_nonumber
 10
671388.2
 20
4560085.34
 30
0.0
  0
SEQEND
  8
TH_south_platte_nonumber
  0
POLYLINE
  8
TH_south_platte_nonumber
 66
1
 40
29.9999845
 41
29.9999845
 62
7
 10
678072.81
 20
4558714.87
 30
0.0
  0
VERTEX
  8
TH_south_platte_nonumber
 10
678072.81
 20
4558714.87
 30
0.0
  0
VERTEX
  8
TH_south_platte_nonumber
 10
678312.69
 20
4558763.49
 30
0.0
  0
VERTEX
  8
TH_south_platte_nonumber
 10
678544.96
 20
4558786.53
 30
0.0
  0
VERTEX
  8
TH_south_platte_nonumber
 10
678658.19
 20
4558798.77
 30
0.0
  0
VERTEX
  8
TH_south_platte_nonumber
 10
678768.51
 20
4558803.45
 30
0.0
  0
VERTEX
  8
TH_south_platte_nonumber
 10
679040.01
 20
4558816.13
 30
0.0
  0
VERTEX
  8
TH_south_platte_nonumber
 10
679141.38
 20
4558815.31
 30
0.0
  0
VERTEX
  8
TH_south_platte_nonumber
 10
679196.85
 20
4558819.1
 30
0.0
  0
VERTEX
  8
TH_south_platte_nonumber
 10
679426.14
 20
4558859.43
 30
0.0
  0
VERTEX
  8
TH_south_platte_nonumber
 10
679534.86
 20
4558866.4
 30
0.0
  0
VERTEX
  8
TH_south_platte_nonumber
 10
679647.23
 20
4558879.15
 30
0.0
  0
VERTEX
  8
TH_south_platte_nonumber
 10
679758.35
 20
4558890.99
 30
0.0
  0
VERTEX
  8
TH_south_platte_nonumber
 10
679861.71
 20
4558895.8
 30
0.0
  0
VERTEX
  8
TH_south_platte_nonumber
 10
680177.58
 20
4558919.41
 30
0.0
  0
VERTEX
  8
TH_south_platte_nonumber
 10
680504.05
 20
4558963.32
 30
0.0
  0
VERTEX
  8
TH_south_platte_nonumber
 10
680726.29
 20
4558977.29
 30
0.0
  0
VERTEX
  8
TH_south_platte_nonumber
 10
680942.48
 20
4559004.88
 30
0.0
  0
VERTEX
  8
TH_south_platte_nonumber
 10
681173.1
 20
4559036.85
 30
0.0
  0
VERTEX
  8
TH_south_platte_nonumber
 10
681406.7
 20
4559063.14
 30
0.0
  0
VERTEX
  8
TH_south_platte_nonumber
 10
681582.09
 20
4559089.2
 30
0.0
  0
VERTEX
  8
TH_south_platte_nonumber
 10
681641.25
 20
4559092.14
 30
0.0
  0
VERTEX
  8
TH_south_platte_nonumber
 10
681744.36
 20
4559090.1
 30
0.0
  0
VERTEX
  8
TH_south_platte_nonumber
 10
681844.68
 20
4559099.53
 30
0.0
  0
VERTEX
  8
TH_south_platte_nonumber
 10
681956.01
 20
4559118.74
 30
0.0
  0
VERTEX
  8
TH_south_platte_nonumber
 10
682062.38
 20
4559128.63
 30
0.0
  0
VERTEX
  8
TH_south_platte_nonumber
 10
682485.66
 20
4559146.46
 30
0.0
  0
VERTEX
  8
TH_south_platte_nonumber
 10
683030.69
 20
4559202.64
 30
0.0
  0
VERTEX
  8
TH_south_platte_nonumber
 10
683247.77
 20
4559233.76
 30
0.0
  0
VERTEX
  8
TH_south_platte_nonumber
 10
683461.17
 20
4559254.04
 30
0.0
  0
VERTEX
  8
TH_south_platte_nonumber
 10
683673.5
 20
4559276.05
 30
0.0
  0
VERTEX
  8
TH_south_platte_nonumber
 10
683779.79
 20
4559278.33
 30
0.0
  0
VERTEX
  8
TH_south_platte_nonumber
 10
683882.52
 20
4559285.74
 30
0.0
  0
VERTEX
  8
TH_south_platte_nonumber
 10
684096.98
 20
4559312.36
 30
0.0
  0
VERTEX
  8
TH_south_platte_nonumber
 10
684304.33
 20
4559334.92
 30
0.0
  0
VERTEX
  8
TH_south_platte_nonumber
 10
684517.21
 20
4559350.59
 30
0.0
  0
VERTEX
  8
TH_south_platte_nonumber
 10
684839.52
 20
4559382.91
 30
0.0
  0
VERTEX
  8
TH_south_platte_nonumber
 10
685048.4
 20
4559417.09
 30
0.0
  0
VERTEX
  8
TH_south_platte_nonumber
 10
685376.26
 20
4559443.54
 30
0.0
  0
VERTEX
  8
TH_south_platte_nonumber
 10
685596.9
 20
4559450.78
 30
0.0
  0
VERTEX
  8
TH_south_platte_nonumber
 10
685707.48
 20
4559459.59
 30
0.0
  0
VERTEX
  8
TH_south_platte_nonumber
 10
686036.9
 20
4559498.1
 30
0.0
  0
VERTEX
  8
TH_south_platte_nonumber
 10
686254.61
 20
4559524.19
 30
0.0
  0
VERTEX
  8
TH_south_platte_nonumber
 10
686467.03
 20
4559542.5
 30
0.0
  0
VERTEX
  8
TH_south_platte_nonumber
 10
686573.95
 20
4559552.44
 30
0.0
  0
VERTEX
  8
TH_south_platte_nonumber
 10
686682.56
 20
4559558.18
 30
0.0
  0
VERTEX
  8
TH_south_platte_nonumber
 10
686905.23
 20
4559585.3
 30
0.0
  0
VERTEX
  8
TH_south_platte_nonumber
 10
687119.64
 20
4559601.99
 30
0.0
  0
VERTEX
  8
TH_south_platte_nonumber
 10
687332.31
 20
4559627.06
 30
0.0
  0
VERTEX
  8
TH_south_platte_nonumber
 10
687437.58
 20
4559631.1
 30
0.0
  0
VERTEX
  8
TH_south_platte_nonumber
 10
687649.34
 20
4559652.36
 30
0.0
  0
VERTEX
  8
TH_south_platte_nonumber
 10
687787.47
 20
4559656.41
 30
0.0
  0
SEQEND
  8
TH_south_platte_nonumber
  0
POLYLINE
  8
TH_south_platte_nonumber
 66
1
 40
29.9999845
 41
29.9999845
 62
7
 10
687790.94
 20
4559656.42
 30
0.0
  0
VERTEX
  8
TH_south_platte_nonumber
 10
687790.94
 20
4559656.42
 30
0.0
  0
VERTEX
  8
TH_south_platte_nonumber
 10
687901.36
 20
4559652.38
 30
0.0
  0
VERTEX
  8
TH_south_platte_nonumber
 10
687953.21
 20
4559644.95
 30
0.0
  0
VERTEX
  8
TH_south_platte_nonumber
 10
688051.89
 20
4559620.88
 30
0.0
  0
VERTEX
  8
TH_south_platte_nonumber
 10
688102.32
 20
4559613.07
 30
0.0
  0
VERTEX
  8
TH_south_platte_nonumber
 10
688148.56
 20
4559611.13
 30
0.0
  0
VERTEX
  8
TH_south_platte_nonumber
 10
688304.14
 20
4559623.78
 30
0.0
  0
VERTEX
  8
TH_south_platte_nonumber
 10
688445.91
 20
4559632.49
 30
0.0
  0
VERTEX
  8
TH_south_platte_nonumber
 10
688484.97
 20
4559631.01
 30
0.0
  0
VERTEX
  8
TH_south_platte_nonumber
 10
688585.46
 20
4559619.24
 30
0.0
  0
VERTEX
  8
TH_south_platte_nonumber
 10
688664.25
 20
4559613.87
 30
0.0
  0
VERTEX
  8
TH_south_platte_nonumber
 10
688864.77
 20
4559631.27
 30
0.0
  0
VERTEX
  8
TH_south_platte_nonumber
 10
688999.14
 20
4559625.96
 30
0.0
  0
VERTEX
  8
TH_south_platte_nonumber
 10
689166.25
 20
4559630.63
 30
0.0
  0
VERTEX
  8
TH_south_platte_nonumber
 10
689365.4
 20
4559619.05
 30
0.0
  0
VERTEX
  8
TH_south_platte_nonumber
 10
689563.98
 20
4559627.99
 30
0.0
  0
VERTEX
  8
TH_south_platte_nonumber
 10
689915.51
 20
4559618.7
 30
0.0
  0
VERTEX
  8
TH_south_platte_nonumber
 10
690044.99
 20
4559611.97
 30
0.0
  0
VERTEX
  8
TH_south_platte_nonumber
 10
690183.94
 20
4559617.59
 30
0.0
  0
VERTEX
  8
TH_south_platte_nonumber
 10
690242.15
 20
4559619.17
 30
0.0
  0
VERTEX
  8
TH_south_platte_nonumber
 10
690298.18
 20
4559617.7
 30
0.0
  0
VERTEX
  8
TH_south_platte_nonumber
 10
690398
 20
4559613.67
 30
0.0
  0
VERTEX
  8
TH_south_platte_nonumber
 10
690504
 20
4559618.68
 30
0.0
  0
VERTEX
  8
TH_south_platte_nonumber
 10
690599.24
 20
4559624.01
 30
0.0
  0
VERTEX
  8
TH_south_platte_nonumber
 10
690690.85
 20
4559620.75
 30
0.0
  0
VERTEX
  8
TH_south_platte_nonumber
 10
690826.64
 20
4559614.58
 30
0.0
  0
VERTEX
  8
TH_south_platte_nonumber
 10
690963.94
 20
4559617.66
 30
0.0
  0
VERTEX
  8
TH_south_platte_nonumber
 10
690989.69
 20
4559618.03
 30
0.0
  0
VERTEX
  8
TH_south_platte_nonumber
 10
691015.26
 20
4559617.95
 30
0.0
  0
VERTEX
  8
TH_south_platte_nonumber
 10
691181.86
 20
4559615.26
 30
0.0
  0
VERTEX
  8
TH_south_platte_nonumber
 10
691277.85
 20
4559616.38
 30
0.0
  0
VERTEX
  8
TH_south_platte_nonumber
 10
691527.32
 20
4559606.57
 30
0.0
  0
VERTEX
  8
TH_south_platte_nonumber
 10
691657.82
 20
4559607.77
 30
0.0
  0
VERTEX
  8
TH_south_platte_nonumber
 10
691912.34
 20
4559601.61
 30
0.0
  0
VERTEX
  8
TH_south_platte_nonumber
 10
692045.86
 20
4559603.26
 30
0.0
  0
VERTEX
  8
TH_south_platte_nonumber
 10
692236.96
 20
4559597.75
 30
0.0
  0
VERTEX
  8
TH_south_platte_nonumber
 10
692469.15
 20
4559616.19
 30
0.0
  0
VERTEX
  8
TH_south_platte_nonumber
 10
692778.36
 20
4559608.59
 30
0.0
  0
VERTEX
  8
TH_south_platte_nonumber
 10
692995.15
 20
4559598.43
 30
0.0
  0
VERTEX
  8
TH_south_platte_nonumber
 10
693026.25
 20
4559598.54
 30
0.0
  0
VERTEX
  8
TH_south_platte_nonumber
 10
693297.84
 20
4559588.37
 30
0.0
  0
VERTEX
  8
TH_south_platte_nonumber
 10
693558.96
 20
4559597.36
 30
0.0
  0
VERTEX
  8
TH_south_platte_nonumber
 10
693668.58
 20
4559607.16
 30
0.0
  0
VERTEX
  8
TH_south_platte_nonumber
 10
693723.56
 20
4559604.61
 30
0.0
  0
VERTEX
  8
TH_south_platte_nonumber
 10
693858.26
 20
4559578.85
 30
0.0
  0
VERTEX
  8
TH_south_platte_nonumber
 10
694073.75
 20
4559559.31
 30
0.0
  0
VERTEX
  8
TH_south_platte_nonumber
 10
694103.91
 20
4559559.6
 30
0.0
  0
VERTEX
  8
TH_south_platte_nonumber
 10
694322.04
 20
4559583.24
 30
0.0
  0
VERTEX
  8
TH_south_platte_nonumber
 10
694439.12
 20
4559580.12
 30
0.0
  0
VERTEX
  8
TH_south_platte_nonumber
 10
694864.34
 20
4559589.45
 30
0.0
  0
VERTEX
  8
TH_south_platte_nonumber
 10
695112.4
 20
4559574.14
 30
0.0
  0
VERTEX
  8
TH_south_platte_nonumber
 10
695176.66
 20
4559574.73
 30
0.0
  0
VERTEX
  8
TH_south_platte_nonumber
 10
695401.46
 20
4559563.97
 30
0.0
  0
VERTEX
  8
TH_south_platte_nonumber
 10
695568.57
 20
4559571.38
 30
0.0
  0
VERTEX
  8
TH_south_platte_nonumber
 10
695654.74
 20
4559567.44
 30
0.0
  0
VERTEX
  8
TH_south_platte_nonumber
 10
695756.54
 20
4559557.35
 30
0.0
  0
VERTEX
  8
TH_south_platte_nonumber
 10
695827.57
 20
4559555.09
 30
0.0
  0
VERTEX
  8
TH_south_platte_nonumber
 10
696411.35
 20
4559582.52
 30
0.0
  0
VERTEX
  8
TH_south_platte_nonumber
 10
696508.43
 20
4559577.72
 30
0.0
  0
VERTEX
  8
TH_south_platte_nonumber
 10
696610.02
 20
4559566.67
 30
0.0
  0
VERTEX
  8
TH_south_platte_nonumber
 10
696665.2
 20
4559563.86
 30
0.0
  0
VERTEX
  8
TH_south_platte_nonumber
 10
696800.92
 20
4559566.01
 30
0.0
  0
VERTEX
  8
TH_south_platte_nonumber
 10
696956.6
 20
4559562.22
 30
0.0
  0
VERTEX
  8
TH_south_platte_nonumber
 10
697121.18
 20
4559568
 30
0.0
  0
VERTEX
  8
TH_south_platte_nonumber
 10
697381.74
 20
4559556.73
 30
0.0
  0
VERTEX
  8
TH_south_platte_nonumber
 10
697414.4
 20
4559556.79
 30
0.0
  0
VERTEX
  8
TH_south_platte_nonumber
 10
697479.92
 20
4559556.16
 30
0.0
  0
VERTEX
  8
TH_south_platte_nonumber
 10
697580.19
 20
4559546.06
 30
0.0
  0
VERTEX
  8
TH_south_platte_nonumber
 10
697627.25
 20
4559535.87
 30
0.0
  0
VERTEX
  8
TH_south_platte_nonumber
 10
697673.14
 20
4559521.8
 30
0.0
  0
VERTEX
  8
TH_south_platte_nonumber
 10
697793.38
 20
4559466.51
 30
0.0
  0
SEQEND
  8
TH_south_platte_nonumber
  0
POLYLINE
  8
TH_south_platte_nonumber
 66
1
 40
29.9999845
 41
29.9999845
 62
7
 10
697305.16
 20
4559598.07
 30
0.0
  0
VERTEX
  8
TH_south_platte_nonumber
 10
697305.16
 20
4559598.07
 30
0.0
  0
VERTEX
  8
TH_south_platte_nonumber
 10
697447.08
 20
4559584.69
 30
0.0
  0
VERTEX
  8
TH_south_platte_nonumber
 10
697490.72
 20
4559574.89
 30
0.0
  0
VERTEX
  8
TH_south_platte_nonumber
 10
697572.87
 20
4559543.96
 30
0.0
  0
VERTEX
  8
TH_south_platte_nonumber
 10
697717.76
 20
4559469.87
 30
0.0
  0
VERTEX
  8
TH_south_platte_nonumber
 10
697793.83
 20
4559432.03
 30
0.0
  0
VERTEX
  8
TH_south_platte_nonumber
 10
697870.26
 20
4559408.84
 30
0.0
  0
VERTEX
  8
TH_south_platte_nonumber
 10
697940.36
 20
4559389.3
 30
0.0
  0
VERTEX
  8
TH_south_platte_nonumber
 10
698007.78
 20
4559360.29
 30
0.0
  0
VERTEX
  8
TH_south_platte_nonumber
 10
698087.56
 20
4559334.26
 30
0.0
  0
VERTEX
  8
TH_south_platte_nonumber
 10
698173.45
 20
4559314.37
 30
0.0
  0
VERTEX
  8
TH_south_platte_nonumber
 10
698213.18
 20
4559299.39
 30
0.0
  0
VERTEX
  8
TH_south_platte_nonumber
 10
698249.6
 20
4559278.82
 30
0.0
  0
VERTEX
  8
TH_south_platte_nonumber
 10
698324.28
 20
4559233.5
 30
0.0
  0
VERTEX
  8
TH_south_platte_nonumber
 10
698366.68
 20
4559216.75
 30
0.0
  0
VERTEX
  8
TH_south_platte_nonumber
 10
698495.55
 20
4559182.49
 30
0.0
  0
VERTEX
  8
TH_south_platte_nonumber
 10
698607.87
 20
4559135.79
 30
0.0
  0
VERTEX
  8
TH_south_platte_nonumber
 10
698736.06
 20
4559105.56
 30
0.0
  0
VERTEX
  8
TH_south_platte_nonumber
 10
698816.12
 20
4559075.64
 30
0.0
  0
VERTEX
  8
TH_south_platte_nonumber
 10
699055.51
 20
4558969.5
 30
0.0
  0
VERTEX
  8
TH_south_platte_nonumber
 10
699180.06
 20
4558927.25
 30
0.0
  0
VERTEX
  8
TH_south_platte_nonumber
 10
699219.91
 20
4558907.45
 30
0.0
  0
VERTEX
  8
TH_south_platte_nonumber
 10
699294.65
 20
4558862.37
 30
0.0
  0
VERTEX
  8
TH_south_platte_nonumber
 10
699374.86
 20
4558824.47
 30
0.0
  0
VERTEX
  8
TH_south_platte_nonumber
 10
699644.93
 20
4558731.86
 30
0.0
  0
VERTEX
  8
TH_south_platte_nonumber
 10
699828
 20
4558667.01
 30
0.0
  0
VERTEX
  8
TH_south_platte_nonumber
 10
700008.57
 20
4558598.1
 30
0.0
  0
VERTEX
  8
TH_south_platte_nonumber
 10
700278.79
 20
4558482.62
 30
0.0
  0
VERTEX
  8
TH_south_platte_nonumber
 10
700418.31
 20
4558433.36
 30
0.0
  0
VERTEX
  8
TH_south_platte_nonumber
 10
700459.37
 20
4558414.14
 30
0.0
  0
VERTEX
  8
TH_south_platte_nonumber
 10
700533.33
 20
4558370.09
 30
0.0
  0
VERTEX
  8
TH_south_platte_nonumber
 10
700572.55
 20
4558350.49
 30
0.0
  0
VERTEX
  8
TH_south_platte_nonumber
 10
700614.8
 20
4558334.43
 30
0.0
  0
VERTEX
  8
TH_south_platte_nonumber
 10
700744.35
 20
4558294.12
 30
0.0
  0
VERTEX
  8
TH_south_platte_nonumber
 10
700858.25
 20
4558234.84
 30
0.0
  0
VERTEX
  8
TH_south_platte_nonumber
 10
700936.93
 20
4558201.11
 30
0.0
  0
VERTEX
  8
TH_south_platte_nonumber
 10
701097.57
 20
4558139.48
 30
0.0
  0
VERTEX
  8
TH_south_platte_nonumber
 10
701184.51
 20
4558112.87
 30
0.0
  0
VERTEX
  8
TH_south_platte_nonumber
 10
701268.3
 20
4558077.95
 30
0.0
  0
VERTEX
  8
TH_south_platte_nonumber
 10
701431.3
 20
4557997.11
 30
0.0
  0
VERTEX
  8
TH_south_platte_nonumber
 10
701613.84
 20
4557931.36
 30
0.0
  0
VERTEX
  8
TH_south_platte_nonumber
 10
701983.69
 20
4557780.69
 30
0.0
  0
VERTEX
  8
TH_south_platte_nonumber
 10
702173.01
 20
4557707.86
 30
0.0
  0
VERTEX
  8
TH_south_platte_nonumber
 10
702258.24
 20
4557666.73
 30
0.0
  0
VERTEX
  8
TH_south_platte_nonumber
 10
702530.79
 20
4557558.71
 30
0.0
  0
VERTEX
  8
TH_south_platte_nonumber
 10
702711.11
 20
4557490.02
 30
0.0
  0
VERTEX
  8
TH_south_platte_nonumber
 10
702884.36
 20
4557415.39
 30
0.0
  0
VERTEX
  8
TH_south_platte_nonumber
 10
703068.03
 20
4557342.45
 30
0.0
  0
VERTEX
  8
TH_south_platte_nonumber
 10
703255.66
 20
4557261.38
 30
0.0
  0
VERTEX
  8
TH_south_platte_nonumber
 10
703458.99
 20
4557183.54
 30
0.0
  0
VERTEX
  8
TH_south_platte_nonumber
 10
703555.36
 20
4557141.13
 30
0.0
  0
VERTEX
  8
TH_south_platte_nonumber
 10
703656.81
 20
4557102.61
 30
0.0
  0
VERTEX
  8
TH_south_platte_nonumber
 10
703762.58
 20
4557068.58
 30
0.0
  0
VERTEX
  8
TH_south_platte_nonumber
 10
703964.12
 20
4556982.06
 30
0.0
  0
VERTEX
  8
TH_south_platte_nonumber
 10
704066.46
 20
4556943.03
 30
0.0
  0
VERTEX
  8
TH_south_platte_nonumber
 10
704163.97
 20
4556897.74
 30
0.0
  0
VERTEX
  8
TH_south_platte_nonumber
 10
704261.92
 20
4556845.77
 30
0.0
  0
VERTEX
  8
TH_south_platte_nonumber
 10
704363.31
 20
4556805.27
 30
0.0
  0
VERTEX
  8
TH_south_platte_nonumber
 10
704468.92
 20
4556769.56
 30
0.0
  0
VERTEX
  8
TH_south_platte_nonumber
 10
704673.14
 20
4556691.44
 30
0.0
  0
VERTEX
  8
TH_south_platte_nonumber
 10
704775.96
 20
4556656.98
 30
0.0
  0
VERTEX
  8
TH_south_platte_nonumber
 10
705260.23
 20
4556453.35
 30
0.0
  0
VERTEX
  8
TH_south_platte_nonumber
 10
705454.95
 20
4556376.83
 30
0.0
  0
VERTEX
  8
TH_south_platte_nonumber
 10
705644.01
 20
4556296.97
 30
0.0
  0
VERTEX
  8
TH_south_platte_nonumber
 10
706024.88
 20
4556144.31
 30
0.0
  0
VERTEX
  8
TH_south_platte_nonumber
 10
706224.45
 20
4556071.86
 30
0.0
  0
VERTEX
  8
TH_south_platte_nonumber
 10
706633.47
 20
4555906.51
 30
0.0
  0
VERTEX
  8
TH_south_platte_nonumber
 10
706736.85
 20
4555857.4
 30
0.0
  0
VERTEX
  8
TH_south_platte_nonumber
 10
706951.47
 20
4555776.69
 30
0.0
  0
VERTEX
  8
TH_south_platte_nonumber
 10
707155.46
 20
4555692.24
 30
0.0
  0
VERTEX
  8
TH_south_platte_nonumber
 10
707263.14
 20
4555654.1
 30
0.0
  0
VERTEX
  8
TH_south_platte_nonumber
 10
707464.69
 20
4555571.09
 30
0.0
  0
VERTEX
  8
TH_south_platte_nonumber
 10
707668.81
 20
4555492.49
 30
0.0
  0
VERTEX
  8
TH_south_platte_nonumber
 10
707864.45
 20
4555399.53
 30
0.0
  0
VERTEX
  8
TH_south_platte_nonumber
 10
708068.81
 20
4555316.57
 30
0.0
  0
VERTEX
  8
TH_south_platte_nonumber
 10
708167.24
 20
4555271.81
 30
0.0
  0
VERTEX
  8
TH_south_platte_nonumber
 10
708268.05
 20
4555233.19
 30
0.0
  0
VERTEX
  8
TH_south_platte_nonumber
 10
708370.93
 20
4555198.18
 30
0.0
  0
VERTEX
  8
TH_south_platte_nonumber
 10
708676.36
 20
4555084.87
 30
0.0
  0
VERTEX
  8
TH_south_platte_nonumber
 10
709185.72
 20
4554866.33
 30
0.0
  0
VERTEX
  8
TH_south_platte_nonumber
 10
709397.17
 20
4554789.18
 30
0.0
  0
VERTEX
  8
TH_south_platte_nonumber
 10
709498.7
 20
4554744.19
 30
0.0
  0
VERTEX
  8
TH_south_platte_nonumber
 10
709706.15
 20
4554665.52
 30
0.0
  0
VERTEX
  8
TH_south_platte_nonumber
 10
709909.9
 20
4554579.14
 30
0.0
  0
VERTEX
  8
TH_south_platte_nonumber
 10
710015.12
 20
4554540.66
 30
0.0
  0
VERTEX
  8
TH_south_platte_nonumber
 10
710215.54
 20
4554449.73
 30
0.0
  0
VERTEX
  8
TH_south_platte_nonumber
 10
710322.22
 20
4554412.52
 30
0.0
  0
VERTEX
  8
TH_south_platte_nonumber
 10
710426.72
 20
4554371.76
 30
0.0
  0
VERTEX
  8
TH_south_platte_nonumber
 10
710524.16
 20
4554325.95
 30
0.0
  0
VERTEX
  8
TH_south_platte_nonumber
 10
710734.66
 20
4554250.9
 30
0.0
  0
VERTEX
  8
TH_south_platte_nonumber
 10
710945.63
 20
4554170.85
 30
0.0
  0
VERTEX
  8
TH_south_platte_nonumber
 10
711056.47
 20
4554132.11
 30
0.0
  0
VERTEX
  8
TH_south_platte_nonumber
 10
711367.77
 20
4553998.31
 30
0.0
  0
VERTEX
  8
TH_south_platte_nonumber
 10
711469.24
 20
4553951.26
 30
0.0
  0
VERTEX
  8
TH_south_platte_nonumber
 10
711564.19
 20
4553899.04
 30
0.0
  0
VERTEX
  8
TH_south_platte_nonumber
 10
711661.16
 20
4553852.24
 30
0.0
  0
VERTEX
  8
TH_south_platte_nonumber
 10
711859.94
 20
4553765.62
 30
0.0
  0
VERTEX
  8
TH_south_platte_nonumber
 10
711909.92
 20
4553749.1
 30
0.0
  0
VERTEX
  8
TH_south_platte_nonumber
 10
711963.52
 20
4553736.49
 30
0.0
  0
VERTEX
  8
TH_south_platte_nonumber
 10
712075.28
 20
4553717.58
 30
0.0
  0
VERTEX
  8
TH_south_platte_nonumber
 10
712177.32
 20
4553693.62
 30
0.0
  0
VERTEX
  8
TH_south_platte_nonumber
 10
712272.55
 20
4553657.3
 30
0.0
  0
VERTEX
  8
TH_south_platte_nonumber
 10
712359.95
 20
4553612.51
 30
0.0
  0
VERTEX
  8
TH_south_platte_nonumber
 10
712480.74
 20
4553541.62
 30
0.0
  0
VERTEX
  8
TH_south_platte_nonumber
 10
712526.02
 20
4553521.53
 30
0.0
  0
VERTEX
  8
TH_south_platte_nonumber
 10
712708.49
 20
4553456.57
 30
0.0
  0
VERTEX
  8
TH_south_platte_nonumber
 10
712794.69
 20
4553414.8
 30
0.0
  0
VERTEX
  8
TH_south_platte_nonumber
 10
712977.86
 20
4553349.46
 30
0.0
  0
VERTEX
  8
TH_south_platte_nonumber
 10
713160.72
 20
4553266.45
 30
0.0
  0
VERTEX
  8
TH_south_platte_nonumber
 10
713255.87
 20
4553232.79
 30
0.0
  0
VERTEX
  8
TH_south_platte_nonumber
 10
713448.87
 20
4553145.64
 30
0.0
  0
VERTEX
  8
TH_south_platte_nonumber
 10
713648.11
 20
4553070.61
 30
0.0
  0
VERTEX
  8
TH_south_platte_nonumber
 10
713744.51
 20
4553026.62
 30
0.0
  0
VERTEX
  8
TH_south_platte_nonumber
 10
713839.11
 20
4552989.27
 30
0.0
  0
VERTEX
  8
TH_south_platte_nonumber
 10
713940.92
 20
4552955.19
 30
0.0
  0
VERTEX
  8
TH_south_platte_nonumber
 10
714040.22
 20
4552915.51
 30
0.0
  0
VERTEX
  8
TH_south_platte_nonumber
 10
714129.04
 20
4552873.96
 30
0.0
  0
VERTEX
  8
TH_south_platte_nonumber
 10
714324.98
 20
4552793.96
 30
0.0
  0
VERTEX
  8
TH_south_platte_nonumber
 10
714466.53
 20
4552732.08
 30
0.0
  0
VERTEX
  8
TH_south_platte_nonumber
 10
714519.58
 20
4552718.13
 30
0.0
  0
VERTEX
  8
TH_south_platte_nonumber
 10
714605.52
 20
4552710.12
 30
0.0
  0
VERTEX
  8
TH_south_platte_nonumber
 10
714693.4
 20
4552721.33
 30
0.0
  0
VERTEX
  8
TH_south_platte_nonumber
 10
714749.89
 20
4552737.78
 30
0.0
  0
VERTEX
  8
TH_south_platte_nonumber
 10
714780.4
 20
4552750.22
 30
0.0
  0
SEQEND
  8
TH_south_platte_nonumber
  0
POLYLINE
  8
TH_south_platte_nonumber
 66
1
 40
29.9999845
 41
29.9999845
 62
7
 10
715211.52
 20
4551878.25
 30
0.0
  0
VERTEX
  8
TH_south_platte_nonumber
 10
715211.52
 20
4551878.25
 30
0.0
  0
VERTEX
  8
TH_south_platte_nonumber
 10
715268.83
 20
4551819.36
 30
0.0
  0
VERTEX
  8
TH_south_platte_nonumber
 10
715287.53
 20
4551788.61
 30
0.0
  0
VERTEX
  8
TH_south_platte_nonumber
 10
715298.67
 20
4551753.16
 30
0.0
  0
VERTEX
  8
TH_south_platte_nonumber
 10
715306.88
 20
4551678.33
 30
0.0
  0
VERTEX
  8
TH_south_platte_nonumber
 10
715311.08
 20
4551644.36
 30
0.0
  0
VERTEX
  8
TH_south_platte_nonumber
 10
715320.04
 20
4551612.5
 30
0.0
  0
VERTEX
  8
TH_south_platte_nonumber
 10
715430.82
 20
4551417.11
 30
0.0
  0
VERTEX
  8
TH_south_platte_nonumber
 10
715477.97
 20
4551350.34
 30
0.0
  0
VERTEX
  8
TH_south_platte_nonumber
 10
715536.03
 20
4551287.1
 30
0.0
  0
VERTEX
  8
TH_south_platte_nonumber
 10
715593.68
 20
4551232.91
 30
0.0
  0
VERTEX
  8
TH_south_platte_nonumber
 10
715619.47
 20
4551200.79
 30
0.0
  0
VERTEX
  8
TH_south_platte_nonumber
 10
715682.46
 20
4551092.44
 30
0.0
  0
VERTEX
  8
TH_south_platte_nonumber
 10
715727.77
 20
4551026.66
 30
0.0
  0
VERTEX
  8
TH_south_platte_nonumber
 10
715828.79
 20
4550891.97
 30
0.0
  0
VERTEX
  8
TH_south_platte_nonumber
 10
715883.65
 20
4550825.1
 30
0.0
  0
VERTEX
  8
TH_south_platte_nonumber
 10
715932.72
 20
4550754.65
 30
0.0
  0
VERTEX
  8
TH_south_platte_nonumber
 10
715977.73
 20
4550685.3
 30
0.0
  0
VERTEX
  8
TH_south_platte_nonumber
 10
716027.17
 20
4550616.82
 30
0.0
  0
VERTEX
  8
TH_south_platte_nonumber
 10
716072.53
 20
4550544.25
 30
0.0
  0
VERTEX
  8
TH_south_platte_nonumber
 10
716107.95
 20
4550470.04
 30
0.0
  0
VERTEX
  8
TH_south_platte_nonumber
 10
716127.36
 20
4550434.28
 30
0.0
  0
VERTEX
  8
TH_south_platte_nonumber
 10
716151.84
 20
4550400.06
 30
0.0
  0
VERTEX
  8
TH_south_platte_nonumber
 10
716242.78
 20
4550302.62
 30
0.0
  0
VERTEX
  8
TH_south_platte_nonumber
 10
716266.91
 20
4550270.19
 30
0.0
  0
VERTEX
  8
TH_south_platte_nonumber
 10
716303.32
 20
4550198.7
 30
0.0
  0
VERTEX
  8
TH_south_platte_nonumber
 10
716344.52
 20
4550127.88
 30
0.0
  0
VERTEX
  8
TH_south_platte_nonumber
 10
716444.54
 20
4550001.14
 30
0.0
  0
VERTEX
  8
TH_south_platte_nonumber
 10
716490.56
 20
4549932.13
 30
0.0
  0
VERTEX
  8
TH_south_platte_nonumber
 10
716586.95
 20
4549804.24
 30
0.0
  0
VERTEX
  8
TH_south_platte_nonumber
 10
716668.94
 20
4549661.34
 30
0.0
  0
VERTEX
  8
TH_south_platte_nonumber
 10
716758.1
 20
4549521.43
 30
0.0
  0
VERTEX
  8
TH_south_platte_nonumber
 10
716805.87
 20
4549455.59
 30
0.0
  0
VERTEX
  8
TH_south_platte_nonumber
 10
716860.34
 20
4549392.71
 30
0.0
  0
VERTEX
  8
TH_south_platte_nonumber
 10
716909.08
 20
4549325.09
 30
0.0
  0
VERTEX
  8
TH_south_platte_nonumber
 10
716952.54
 20
4549256.94
 30
0.0
  0
VERTEX
  8
TH_south_platte_nonumber
 10
717049.09
 20
4549126.89
 30
0.0
  0
VERTEX
  8
TH_south_platte_nonumber
 10
717094.39
 20
4549056.46
 30
0.0
  0
VERTEX
  8
TH_south_platte_nonumber
 10
717202.41
 20
4548918.85
 30
0.0
  0
VERTEX
  8
TH_south_platte_nonumber
 10
717338.75
 20
4548699.89
 30
0.0
  0
VERTEX
  8
TH_south_platte_nonumber
 10
717427.75
 20
4548538.22
 30
0.0
  0
VERTEX
  8
TH_south_platte_nonumber
 10
717486.79
 20
4548461.02
 30
0.0
  0
VERTEX
  8
TH_south_platte_nonumber
 10
717540.37
 20
4548383.16
 30
0.0
  0
VERTEX
  8
TH_south_platte_nonumber
 10
717579.25
 20
4548301.56
 30
0.0
  0
VERTEX
  8
TH_south_platte_nonumber
 10
717603.49
 20
4548262.08
 30
0.0
  0
VERTEX
  8
TH_south_platte_nonumber
 10
717638.75
 20
4548229.03
 30
0.0
  0
VERTEX
  8
TH_south_platte_nonumber
 10
717673.42
 20
4548207.43
 30
0.0
  0
SEQEND
  8
TH_south_platte_nonumber
  0
POLYLINE
  8
TH_south_platte_nonumber
 66
1
 40
29.9999845
 41
29.9999845
 62
7
 10
718082.62
 20
4547728.5
 30
0.0
  0
VERTEX
  8
TH_south_platte_nonumber
 10
718082.62
 20
4547728.5
 30
0.0
  0
VERTEX
  8
TH_south_platte_nonumber
 10
718161.43
 20
4547570.17
 30
0.0
  0
VERTEX
  8
TH_south_platte_nonumber
 10
718246.46
 20
4547412.31
 30
0.0
  0
VERTEX
  8
TH_south_platte_nonumber
 10
718553.12
 20
4546853.93
 30
0.0
  0
VERTEX
  8
TH_south_platte_nonumber
 10
718752.99
 20
4546441.65
 30
0.0
  0
VERTEX
  8
TH_south_platte_nonumber
 10
718849.83
 20
4546275.69
 30
0.0
  0
VERTEX
  8
TH_south_platte_nonumber
 10
718935.53
 20
4546111.07
 30
0.0
  0
VERTEX
  8
TH_south_platte_nonumber
 10
719073.43
 20
4545865.68
 30
0.0
  0
VERTEX
  8
TH_south_platte_nonumber
 10
719223.21
 20
4545629.66
 30
0.0
  0
VERTEX
  8
TH_south_platte_nonumber
 10
719278.55
 20
4545548.6
 30
0.0
  0
VERTEX
  8
TH_south_platte_nonumber
 10
719324.98
 20
4545467.5
 30
0.0
  0
VERTEX
  8
TH_south_platte_nonumber
 10
719479.36
 20
4545138
 30
0.0
  0
VERTEX
  8
TH_south_platte_nonumber
 10
719571.79
 20
4544979.02
 30
0.0
  0
VERTEX
  8
TH_south_platte_nonumber
 10
719618.19
 20
4544857
 30
0.0
  0
VERTEX
  8
TH_south_platte_nonumber
 10
719639.74
 20
4544818.37
 30
0.0
  0
VERTEX
  8
TH_south_platte_nonumber
 10
719695.09
 20
4544745.57
 30
0.0
  0
VERTEX
  8
TH_south_platte_nonumber
 10
719743.22
 20
4544674.36
 30
0.0
  0
VERTEX
  8
TH_south_platte_nonumber
 10
719781.07
 20
4544599.88
 30
0.0
  0
VERTEX
  8
TH_south_platte_nonumber
 10
719808.52
 20
4544523.05
 30
0.0
  0
VERTEX
  8
TH_south_platte_nonumber
 10
719839.51
 20
4544451.13
 30
0.0
  0
VERTEX
  8
TH_south_platte_nonumber
 10
720004.27
 20
4544180.21
 30
0.0
  0
VERTEX
  8
TH_south_platte_nonumber
 10
720040.82
 20
4544112.01
 30
0.0
  0
VERTEX
  8
TH_south_platte_nonumber
 10
720069.7
 20
4544041.28
 30
0.0
  0
VERTEX
  8
TH_south_platte_nonumber
 10
720140.41
 20
4543896.01
 30
0.0
  0
VERTEX
  8
TH_south_platte_nonumber
 10
720224.14
 20
4543761.61
 30
0.0
  0
VERTEX
  8
TH_south_platte_nonumber
 10
720334.86
 20
4543544.34
 30
0.0
  0
VERTEX
  8
TH_south_platte_nonumber
 10
720372.07
 20
4543433.79
 30
0.0
  0
VERTEX
  8
TH_south_platte_nonumber
 10
720389.11
 20
4543398.53
 30
0.0
  0
VERTEX
  8
TH_south_platte_nonumber
 10
720484.08
 20
4543260.39
 30
0.0
  0
VERTEX
  8
TH_south_platte_nonumber
 10
720522.1
 20
4543189.47
 30
0.0
  0
VERTEX
  8
TH_south_platte_nonumber
 10
720573.65
 20
4543042.78
 30
0.0
  0
VERTEX
  8
TH_south_platte_nonumber
 10
720594.56
 20
4543006.89
 30
0.0
  0
VERTEX
  8
TH_south_platte_nonumber
 10
720675.06
 20
4542915.3
 30
0.0
  0
VERTEX
  8
TH_south_platte_nonumber
 10
720752.67
 20
4542776.65
 30
0.0
  0
VERTEX
  8
TH_south_platte_nonumber
 10
720784.46
 20
4542707.92
 30
0.0
  0
VERTEX
  8
TH_south_platte_nonumber
 10
720811.38
 20
4542639.06
 30
0.0
  0
VERTEX
  8
TH_south_platte_nonumber
 10
720830.38
 20
4542605.35
 30
0.0
  0
VERTEX
  8
TH_south_platte_nonumber
 10
720896.14
 20
4542507.56
 30
0.0
  0
VERTEX
  8
TH_south_platte_nonumber
 10
720941.28
 20
4542400.71
 30
0.0
  0
VERTEX
  8
TH_south_platte_nonumber
 10
720960.94
 20
4542365.86
 30
0.0
  0
VERTEX
  8
TH_south_platte_nonumber
 10
721008.93
 20
4542297.24
 30
0.0
  0
VERTEX
  8
TH_south_platte_nonumber
 10
721050.13
 20
4542226.87
 30
0.0
  0
VERTEX
  8
TH_south_platte_nonumber
 10
721098.29
 20
4542128.54
 30
0.0
  0
SEQEND
  8
TH_south_platte_nonumber
  0
POLYLINE
  8
TH_south_platte_nonumber
 66
1
 40
29.9999845
 41
29.9999845
 62
7
 10
579598.78
 20
4560118.86
 30
0.0
  0
VERTEX
  8
TH_south_platte_nonumber
 10
579598.78
 20
4560118.86
 30
0.0
  0
VERTEX
  8
TH_south_platte_nonumber
 10
579693.9
 20
4560239.48
 30
0.0
  0
VERTEX
  8
TH_south_platte_nonumber
 10
579721.73
 20
4560282.72
 30
0.0
  0
VERTEX
  8
TH_south_platte_nonumber
 10
579771.64
 20
4560377.34
 30
0.0
  0
VERTEX
  8
TH_south_platte_nonumber
 10
579878.37
 20
4560550.76
 30
0.0
  0
VERTEX
  8
TH_south_platte_nonumber
 10
579978.11
 20
4560747.16
 30
0.0
  0
VERTEX
  8
TH_south_platte_nonumber
 10
580033.63
 20
4560838.18
 30
0.0
  0
VERTEX
  8
TH_south_platte_nonumber
 10
580139.17
 20
4561036.89
 30
0.0
  0
VERTEX
  8
TH_south_platte_nonumber
 10
580293.92
 20
4561308.15
 30
0.0
  0
VERTEX
  8
TH_south_platte_nonumber
 10
580385.06
 20
4561481.2
 30
0.0
  0
VERTEX
  8
TH_south_platte_nonumber
 10
580423.65
 20
4561569.98
 30
0.0
  0
VERTEX
  8
TH_south_platte_nonumber
 10
580468.25
 20
4561651.17
 30
0.0
  0
VERTEX
  8
TH_south_platte_nonumber
 10
580517.44
 20
4561729.95
 30
0.0
  0
VERTEX
  8
TH_south_platte_nonumber
 10
580595.56
 20
4561907.53
 30
0.0
  0
VERTEX
  8
TH_south_platte_nonumber
 10
580694.57
 20
4562073
 30
0.0
  0
VERTEX
  8
TH_south_platte_nonumber
 10
580735.65
 20
4562164.59
 30
0.0
  0
VERTEX
  8
TH_south_platte_nonumber
 10
580782.63
 20
4562249.22
 30
0.0
  0
VERTEX
  8
TH_south_platte_nonumber
 10
580833.8
 20
4562330.34
 30
0.0
  0
VERTEX
  8
TH_south_platte_nonumber
 10
580925.54
 20
4562502.01
 30
0.0
  0
VERTEX
  8
TH_south_platte_nonumber
 10
581130.06
 20
4562849.22
 30
0.0
  0
VERTEX
  8
TH_south_platte_nonumber
 10
581238.76
 20
4563024.3
 30
0.0
  0
VERTEX
  8
TH_south_platte_nonumber
 10
581343.64
 20
4563203.38
 30
0.0
  0
VERTEX
  8
TH_south_platte_nonumber
 10
581545.24
 20
4563570.89
 30
0.0
  0
VERTEX
  8
TH_south_platte_nonumber
 10
581750.72
 20
4563938.77
 30
0.0
  0
VERTEX
  8
TH_south_platte_nonumber
 10
581857.74
 20
4564122.2
 30
0.0
  0
VERTEX
  8
TH_south_platte_nonumber
 10
582111.88
 20
4564590.61
 30
0.0
  0
VERTEX
  8
TH_south_platte_nonumber
 10
582166.78
 20
4564685.98
 30
0.0
  0
VERTEX
  8
TH_south_platte_nonumber
 10
582275.19
 20
4564887.75
 30
0.0
  0
VERTEX
  8
TH_south_platte_nonumber
 10
582387.49
 20
4565086.73
 30
0.0
  0
VERTEX
  8
TH_south_platte_nonumber
 10
582557.3
 20
4565373.53
 30
0.0
  0
VERTEX
  8
TH_south_platte_nonumber
 10
582709.41
 20
4565668.9
 30
0.0
  0
VERTEX
  8
TH_south_platte_nonumber
 10
582920.52
 20
4566058.53
 30
0.0
  0
VERTEX
  8
TH_south_platte_nonumber
 10
583142.84
 20
4566437.33
 30
0.0
  0
VERTEX
  8
TH_south_platte_nonumber
 10
583244.64
 20
4566629.59
 30
0.0
  0
VERTEX
  8
TH_south_platte_nonumber
 10
583505.48
 20
4567096.16
 30
0.0
  0
VERTEX
  8
TH_south_platte_nonumber
 10
583603.22
 20
4567288.36
 30
0.0
  0
VERTEX
  8
TH_south_platte_nonumber
 10
583756.52
 20
4567561.89
 30
0.0
  0
VERTEX
  8
TH_south_platte_nonumber
 10
583865.64
 20
4567739.15
 30
0.0
  0
VERTEX
  8
TH_south_platte_nonumber
 10
584080.07
 20
4568110.53
 30
0.0
  0
VERTEX
  8
TH_south_platte_nonumber
 10
584336.63
 20
4568598.23
 30
0.0
  0
VERTEX
  8
TH_south_platte_nonumber
 10
584393.54
 20
4568696.23
 30
0.0
  0
VERTEX
  8
TH_south_platte_nonumber
 10
584498.49
 20
4568900.55
 30
0.0
  0
VERTEX
  8
TH_south_platte_nonumber
 10
584605.01
 20
4569097.97
 30
0.0
  0
VERTEX
  8
TH_south_platte_nonumber
 10
584830.76
 20
4569498.88
 30
0.0
  0
VERTEX
  8
TH_south_platte_nonumber
 10
584949.93
 20
4569702.93
 30
0.0
  0
VERTEX
  8
TH_south_platte_nonumber
 10
585005.19
 20
4569809.55
 30
0.0
  0
VERTEX
  8
TH_south_platte_nonumber
 10
585065.7
 20
4569913.42
 30
0.0
  0
VERTEX
  8
TH_south_platte_nonumber
 10
585129.04
 20
4570010.02
 30
0.0
  0
VERTEX
  8
TH_south_platte_nonumber
 10
585190.51
 20
4570112.12
 30
0.0
  0
VERTEX
  8
TH_south_platte_nonumber
 10
585306.71
 20
4570319.69
 30
0.0
  0
VERTEX
  8
TH_south_platte_nonumber
 10
585361.47
 20
4570426.59
 30
0.0
  0
VERTEX
  8
TH_south_platte_nonumber
 10
585411.1
 20
4570538.56
 30
0.0
  0
VERTEX
  8
TH_south_platte_nonumber
 10
585463.79
 20
4570643.45
 30
0.0
  0
VERTEX
  8
TH_south_platte_nonumber
 10
585962.57
 20
4571513.05
 30
0.0
  0
VERTEX
  8
TH_south_platte_nonumber
 10
586285.47
 20
4572067.16
 30
0.0
  0
VERTEX
  8
TH_south_platte_nonumber
 10
586690.44
 20
4572816.75
 30
0.0
  0
VERTEX
  8
TH_south_platte_nonumber
 10
586799.69
 20
4573008.47
 30
0.0
  0
VERTEX
  8
TH_south_platte_nonumber
 10
586914.19
 20
4573198.96
 30
0.0
  0
VERTEX
  8
TH_south_platte_nonumber
 10
587020.66
 20
4573389.4
 30
0.0
  0
VERTEX
  8
TH_south_platte_nonumber
 10
587221.07
 20
4573768.59
 30
0.0
  0
VERTEX
  8
TH_south_platte_nonumber
 10
587324
 20
4573956.21
 30
0.0
  0
VERTEX
  8
TH_south_platte_nonumber
 10
587421.53
 20
4574151.09
 30
0.0
  0
VERTEX
  8
TH_south_platte_nonumber
 10
587581.65
 20
4574442.39
 30
0.0
  0
VERTEX
  8
TH_south_platte_nonumber
 10
587701.17
 20
4574629.98
 30
0.0
  0
VERTEX
  8
TH_south_platte_nonumber
 10
587757.8
 20
4574725.01
 30
0.0
  0
VERTEX
  8
TH_south_platte_nonumber
 10
587859.79
 20
4574919.93
 30
0.0
  0
VERTEX
  8
TH_south_platte_nonumber
 10
587954.3
 20
4575076.59
 30
0.0
  0
SEQEND
  8
TH_south_platte_nonumber
  0
POLYLINE
  8
TH_south_platte_nonumber
 66
1
 40
29.9999845
 41
29.9999845
 62
7
 10
587742.57
 20
4575029.3
 30
0.0
  0
VERTEX
  8
TH_south_platte_nonumber
 10
587742.57
 20
4575029.3
 30
0.0
  0
VERTEX
  8
TH_south_platte_nonumber
 10
587819.51
 20
4574972.32
 30
0.0
  0
VERTEX
  8
TH_south_platte_nonumber
 10
587905.72
 20
4574926.67
 30
0.0
  0
VERTEX
  8
TH_south_platte_nonumber
 10
587948.66
 20
4574902.39
 30
0.0
  0
VERTEX
  8
TH_south_platte_nonumber
 10
587989.58
 20
4574873.96
 30
0.0
  0
VERTEX
  8
TH_south_platte_nonumber
 10
588066.7
 20
4574812.24
 30
0.0
  0
VERTEX
  8
TH_south_platte_nonumber
 10
588148.17
 20
4574758.8
 30
0.0
  0
VERTEX
  8
TH_south_platte_nonumber
 10
588239.28
 20
4574708.05
 30
0.0
  0
VERTEX
  8
TH_south_platte_nonumber
 10
588324.06
 20
4574651.12
 30
0.0
  0
VERTEX
  8
TH_south_platte_nonumber
 10
588406.25
 20
4574598.82
 30
0.0
  0
VERTEX
  8
TH_south_platte_nonumber
 10
588494.7
 20
4574548.93
 30
0.0
  0
VERTEX
  8
TH_south_platte_nonumber
 10
588662.12
 20
4574429.89
 30
0.0
  0
VERTEX
  8
TH_south_platte_nonumber
 10
588845.59
 20
4574324.22
 30
0.0
  0
VERTEX
  8
TH_south_platte_nonumber
 10
588927.81
 20
4574264.22
 30
0.0
  0
VERTEX
  8
TH_south_platte_nonumber
 10
589016.56
 20
4574210.1
 30
0.0
  0
VERTEX
  8
TH_south_platte_nonumber
 10
589107.39
 20
4574156.44
 30
0.0
  0
VERTEX
  8
TH_south_platte_nonumber
 10
589192.1
 20
4574098.42
 30
0.0
  0
VERTEX
  8
TH_south_platte_nonumber
 10
589863.97
 20
4573635.92
 30
0.0
  0
VERTEX
  8
TH_south_platte_nonumber
 10
590030.46
 20
4573527.27
 30
0.0
  0
VERTEX
  8
TH_south_platte_nonumber
 10
590204.06
 20
4573421.93
 30
0.0
  0
VERTEX
  8
TH_south_platte_nonumber
 10
590289.8
 20
4573365.09
 30
0.0
  0
VERTEX
  8
TH_south_platte_nonumber
 10
590472.84
 20
4573259.15
 30
0.0
  0
VERTEX
  8
TH_south_platte_nonumber
 10
590647.9
 20
4573139.98
 30
0.0
  0
VERTEX
  8
TH_south_platte_nonumber
 10
590740.14
 20
4573085.35
 30
0.0
  0
VERTEX
  8
TH_south_platte_nonumber
 10
590923.17
 20
4572969.14
 30
0.0
  0
VERTEX
  8
TH_south_platte_nonumber
 10
591107.67
 20
4572845.57
 30
0.0
  0
VERTEX
  8
TH_south_platte_nonumber
 10
591281.74
 20
4572720.78
 30
0.0
  0
VERTEX
  8
TH_south_platte_nonumber
 10
591643.3
 20
4572487.83
 30
0.0
  0
VERTEX
  8
TH_south_platte_nonumber
 10
591833.43
 20
4572369.7
 30
0.0
  0
VERTEX
  8
TH_south_platte_nonumber
 10
592014.2
 20
4572248.82
 30
0.0
  0
VERTEX
  8
TH_south_platte_nonumber
 10
592105
 20
4572194.81
 30
0.0
  0
VERTEX
  8
TH_south_platte_nonumber
 10
592280.97
 20
4572079.69
 30
0.0
  0
VERTEX
  8
TH_south_platte_nonumber
 10
592372.56
 20
4572025.09
 30
0.0
  0
VERTEX
  8
TH_south_platte_nonumber
 10
592460.57
 20
4571967.22
 30
0.0
  0
VERTEX
  8
TH_south_platte_nonumber
 10
592546.47
 20
4571904.61
 30
0.0
  0
VERTEX
  8
TH_south_platte_nonumber
 10
592721.49
 20
4571792.56
 30
0.0
  0
VERTEX
  8
TH_south_platte_nonumber
 10
592806.12
 20
4571733.44
 30
0.0
  0
VERTEX
  8
TH_south_platte_nonumber
 10
592894.13
 20
4571678.2
 30
0.0
  0
VERTEX
  8
TH_south_platte_nonumber
 10
592985.17
 20
4571625.85
 30
0.0
  0
VERTEX
  8
TH_south_platte_nonumber
 10
593418.73
 20
4571331
 30
0.0
  0
VERTEX
  8
TH_south_platte_nonumber
 10
593768.3
 20
4571102.27
 30
0.0
  0
VERTEX
  8
TH_south_platte_nonumber
 10
594130.21
 20
4570876.57
 30
0.0
  0
VERTEX
  8
TH_south_platte_nonumber
 10
594322.73
 20
4570764.94
 30
0.0
  0
VERTEX
  8
TH_south_platte_nonumber
 10
594508.37
 20
4570634.94
 30
0.0
  0
VERTEX
  8
TH_south_platte_nonumber
 10
594700.22
 20
4570515.04
 30
0.0
  0
VERTEX
  8
TH_south_platte_nonumber
 10
594974.52
 20
4570331.02
 30
0.0
  0
VERTEX
  8
TH_south_platte_nonumber
 10
595065.08
 20
4570265.35
 30
0.0
  0
VERTEX
  8
TH_south_platte_nonumber
 10
595440.88
 20
4570009.79
 30
0.0
  0
VERTEX
  8
TH_south_platte_nonumber
 10
595630.29
 20
4569889.35
 30
0.0
  0
VERTEX
  8
TH_south_platte_nonumber
 10
595820.4
 20
4569777.73
 30
0.0
  0
VERTEX
  8
TH_south_platte_nonumber
 10
596002.83
 20
4569660.57
 30
0.0
  0
VERTEX
  8
TH_south_platte_nonumber
 10
596182.54
 20
4569551.03
 30
0.0
  0
VERTEX
  8
TH_south_platte_nonumber
 10
596267.4
 20
4569489.09
 30
0.0
  0
VERTEX
  8
TH_south_platte_nonumber
 10
596445.95
 20
4569373.78
 30
0.0
  0
VERTEX
  8
TH_south_platte_nonumber
 10
596620.73
 20
4569250.98
 30
0.0
  0
VERTEX
  8
TH_south_platte_nonumber
 10
596713.43
 20
4569195.61
 30
0.0
  0
VERTEX
  8
TH_south_platte_nonumber
 10
596892.22
 20
4569076.6
 30
0.0
  0
VERTEX
  8
TH_south_platte_nonumber
 10
597069.09
 20
4568965.48
 30
0.0
  0
VERTEX
  8
TH_south_platte_nonumber
 10
597249.72
 20
4568842.97
 30
0.0
  0
VERTEX
  8
TH_south_platte_nonumber
 10
597431.72
 20
4568731.96
 30
0.0
  0
VERTEX
  8
TH_south_platte_nonumber
 10
597970.32
 20
4568379.39
 30
0.0
  0
VERTEX
  8
TH_south_platte_nonumber
 10
598153.73
 20
4568266.27
 30
0.0
  0
VERTEX
  8
TH_south_platte_nonumber
 10
598343.28
 20
4568157.25
 30
0.0
  0
VERTEX
  8
TH_south_platte_nonumber
 10
598522.94
 20
4568037.25
 30
0.0
  0
VERTEX
  8
TH_south_platte_nonumber
 10
598615.46
 20
4567981.04
 30
0.0
  0
VERTEX
  8
TH_south_platte_nonumber
 10
598796.39
 20
4567855.87
 30
0.0
  0
VERTEX
  8
TH_south_platte_nonumber
 10
598980.27
 20
4567735.43
 30
0.0
  0
VERTEX
  8
TH_south_platte_nonumber
 10
599065.32
 20
4567673.16
 30
0.0
  0
VERTEX
  8
TH_south_platte_nonumber
 10
599151.94
 20
4567616.22
 30
0.0
  0
VERTEX
  8
TH_south_platte_nonumber
 10
599246.82
 20
4567561.61
 30
0.0
  0
VERTEX
  8
TH_south_platte_nonumber
 10
599427.57
 20
4567439.66
 30
0.0
  0
VERTEX
  8
TH_south_platte_nonumber
 10
599520.34
 20
4567382.66
 30
0.0
  0
VERTEX
  8
TH_south_platte_nonumber
 10
599957.65
 20
4567072.96
 30
0.0
  0
VERTEX
  8
TH_south_platte_nonumber
 10
600048.75
 20
4567011.79
 30
0.0
  0
VERTEX
  8
TH_south_platte_nonumber
 10
600603.46
 20
4566679.49
 30
0.0
  0
VERTEX
  8
TH_south_platte_nonumber
 10
600693.12
 20
4566619.33
 30
0.0
  0
VERTEX
  8
TH_south_platte_nonumber
 10
600882.89
 20
4566501.19
 30
0.0
  0
VERTEX
  8
TH_south_platte_nonumber
 10
600971.68
 20
4566439.19
 30
0.0
  0
VERTEX
  8
TH_south_platte_nonumber
 10
601161.32
 20
4566322.83
 30
0.0
  0
VERTEX
  8
TH_south_platte_nonumber
 10
601601.89
 20
4566010.43
 30
0.0
  0
VERTEX
  8
TH_south_platte_nonumber
 10
601784.72
 20
4565900.01
 30
0.0
  0
VERTEX
  8
TH_south_platte_nonumber
 10
601873.28
 20
4565841.49
 30
0.0
  0
VERTEX
  8
TH_south_platte_nonumber
 10
601966.83
 20
4565787.9
 30
0.0
  0
VERTEX
  8
TH_south_platte_nonumber
 10
602064.49
 20
4565738.99
 30
0.0
  0
VERTEX
  8
TH_south_platte_nonumber
 10
602243.43
 20
4565623.01
 30
0.0
  0
VERTEX
  8
TH_south_platte_nonumber
 10
602434.64
 20
4565510.03
 30
0.0
  0
VERTEX
  8
TH_south_platte_nonumber
 10
602494.09
 20
4565469.62
 30
0.0
  0
SEQEND
  8
TH_south_platte_nonumber
  0
POLYLINE
  8
TH_south_platte_nonumber
 66
1
 40
29.9999845
 41
29.9999845
 62
7
 10
602302.41
 20
4565398.68
 30
0.0
  0
VERTEX
  8
TH_south_platte_nonumber
 10
602302.41
 20
4565398.68
 30
0.0
  0
VERTEX
  8
TH_south_platte_nonumber
 10
602532.57
 20
4565751.88
 30
0.0
  0
VERTEX
  8
TH_south_platte_nonumber
 10
602645.34
 20
4565918.17
 30
0.0
  0
VERTEX
  8
TH_south_platte_nonumber
 10
602925.56
 20
4566369.84
 30
0.0
  0
VERTEX
  8
TH_south_platte_nonumber
 10
603027.75
 20
4566555.72
 30
0.0
  0
VERTEX
  8
TH_south_platte_nonumber
 10
603188.77
 20
4566821.05
 30
0.0
  0
VERTEX
  8
TH_south_platte_nonumber
 10
603309.11
 20
4566990.86
 30
0.0
  0
VERTEX
  8
TH_south_platte_nonumber
 10
603425.19
 20
4567176.41
 30
0.0
  0
VERTEX
  8
TH_south_platte_nonumber
 10
603548.05
 20
4567350.02
 30
0.0
  0
VERTEX
  8
TH_south_platte_nonumber
 10
603727.68
 20
4567624.31
 30
0.0
  0
VERTEX
  8
TH_south_platte_nonumber
 10
603782.53
 20
4567715.88
 30
0.0
  0
VERTEX
  8
TH_south_platte_nonumber
 10
603899.67
 20
4567891.88
 30
0.0
  0
VERTEX
  8
TH_south_platte_nonumber
 10
604003.51
 20
4568075.42
 30
0.0
  0
VERTEX
  8
TH_south_platte_nonumber
 10
604118.56
 20
4568249.2
 30
0.0
  0
VERTEX
  8
TH_south_platte_nonumber
 10
604170.53
 20
4568341.14
 30
0.0
  0
VERTEX
  8
TH_south_platte_nonumber
 10
604286.07
 20
4568523.17
 30
0.0
  0
VERTEX
  8
TH_south_platte_nonumber
 10
604383.61
 20
4568716.94
 30
0.0
  0
VERTEX
  8
TH_south_platte_nonumber
 10
604444.48
 20
4568810.77
 30
0.0
  0
VERTEX
  8
TH_south_platte_nonumber
 10
604550.8
 20
4568995.47
 30
0.0
  0
VERTEX
  8
TH_south_platte_nonumber
 10
604673.37
 20
4569170.58
 30
0.0
  0
VERTEX
  8
TH_south_platte_nonumber
 10
604729.23
 20
4569259.06
 30
0.0
  0
VERTEX
  8
TH_south_platte_nonumber
 10
604855.62
 20
4569432.21
 30
0.0
  0
VERTEX
  8
TH_south_platte_nonumber
 10
604970.18
 20
4569607.2
 30
0.0
  0
VERTEX
  8
TH_south_platte_nonumber
 10
605033.23
 20
4569695.05
 30
0.0
  0
VERTEX
  8
TH_south_platte_nonumber
 10
605088.85
 20
4569780.75
 30
0.0
  0
VERTEX
  8
TH_south_platte_nonumber
 10
605360.01
 20
4570240.43
 30
0.0
  0
VERTEX
  8
TH_south_platte_nonumber
 10
605816.84
 20
4570963.73
 30
0.0
  0
SEQEND
  8
TH_south_platte_nonumber
  0
POLYLINE
  8
TH_south_platte_nonumber
 66
1
 40
29.9999845
 41
29.9999845
 62
7
 10
605595.73
 20
4570876.9
 30
0.0
  0
VERTEX
  8
TH_south_platte_nonumber
 10
605595.73
 20
4570876.9
 30
0.0
  0
VERTEX
  8
TH_south_platte_nonumber
 10
605689.49
 20
4570838.02
 30
0.0
  0
VERTEX
  8
TH_south_platte_nonumber
 10
605784.5
 20
4570807.54
 30
0.0
  0
VERTEX
  8
TH_south_platte_nonumber
 10
606075.02
 20
4570740.4
 30
0.0
  0
VERTEX
  8
TH_south_platte_nonumber
 10
606376.69
 20
4570650.28
 30
0.0
  0
VERTEX
  8
TH_south_platte_nonumber
 10
606474.71
 20
4570615.88
 30
0.0
  0
VERTEX
  8
TH_south_platte_nonumber
 10
606575.84
 20
4570585.37
 30
0.0
  0
VERTEX
  8
TH_south_platte_nonumber
 10
606679.53
 20
4570558.35
 30
0.0
  0
VERTEX
  8
TH_south_platte_nonumber
 10
606780.78
 20
4570527.4
 30
0.0
  0
VERTEX
  8
TH_south_platte_nonumber
 10
606884.66
 20
4570496.99
 30
0.0
  0
VERTEX
  8
TH_south_platte_nonumber
 10
606987.26
 20
4570472.43
 30
0.0
  0
VERTEX
  8
TH_south_platte_nonumber
 10
607088.76
 20
4570444.47
 30
0.0
  0
VERTEX
  8
TH_south_platte_nonumber
 10
607191.94
 20
4570410.25
 30
0.0
  0
VERTEX
  8
TH_south_platte_nonumber
 10
607400.01
 20
4570341.95
 30
0.0
  0
VERTEX
  8
TH_south_platte_nonumber
 10
607606.73
 20
4570265.94
 30
0.0
  0
VERTEX
  8
TH_south_platte_nonumber
 10
607710.38
 20
4570232.97
 30
0.0
  0
VERTEX
  8
TH_south_platte_nonumber
 10
607815.55
 20
4570194.94
 30
0.0
  0
VERTEX
  8
TH_south_platte_nonumber
 10
607921.37
 20
4570161.5
 30
0.0
  0
VERTEX
  8
TH_south_platte_nonumber
 10
608029.66
 20
4570133.23
 30
0.0
  0
VERTEX
  8
TH_south_platte_nonumber
 10
608137.55
 20
4570099.94
 30
0.0
  0
VERTEX
  8
TH_south_platte_nonumber
 10
608244.21
 20
4570061.16
 30
0.0
  0
VERTEX
  8
TH_south_platte_nonumber
 10
608351.82
 20
4570019.95
 30
0.0
  0
VERTEX
  8
TH_south_platte_nonumber
 10
608455.8
 20
4569975.64
 30
0.0
  0
VERTEX
  8
TH_south_platte_nonumber
 10
608660.9
 20
4569878.93
 30
0.0
  0
VERTEX
  8
TH_south_platte_nonumber
 10
608875.75
 20
4569782.21
 30
0.0
  0
VERTEX
  8
TH_south_platte_nonumber
 10
608981.65
 20
4569739.66
 30
0.0
  0
VERTEX
  8
TH_south_platte_nonumber
 10
609090.42
 20
4569706.94
 30
0.0
  0
VERTEX
  8
TH_south_platte_nonumber
 10
609304.43
 20
4569658.95
 30
0.0
  0
VERTEX
  8
TH_south_platte_nonumber
 10
609513.58
 20
4569607.05
 30
0.0
  0
VERTEX
  8
TH_south_platte_nonumber
 10
609619.53
 20
4569583.13
 30
0.0
  0
VERTEX
  8
TH_south_platte_nonumber
 10
609725.51
 20
4569564.65
 30
0.0
  0
VERTEX
  8
TH_south_platte_nonumber
 10
609932.69
 20
4569518.8
 30
0.0
  0
VERTEX
  8
TH_south_platte_nonumber
 10
610138.97
 20
4569467.44
 30
0.0
  0
VERTEX
  8
TH_south_platte_nonumber
 10
610241.74
 20
4569443.45
 30
0.0
  0
VERTEX
  8
TH_south_platte_nonumber
 10
610345.44
 20
4569424.09
 30
0.0
  0
VERTEX
  8
TH_south_platte_nonumber
 10
610445.71
 20
4569401.36
 30
0.0
  0
VERTEX
  8
TH_south_platte_nonumber
 10
610547.19
 20
4569371.95
 30
0.0
  0
VERTEX
  8
TH_south_platte_nonumber
 10
610748.41
 20
4569304.3
 30
0.0
  0
VERTEX
  8
TH_south_platte_nonumber
 10
610950.82
 20
4569227.1
 30
0.0
  0
VERTEX
  8
TH_south_platte_nonumber
 10
611047.23
 20
4569192.15
 30
0.0
  0
VERTEX
  8
TH_south_platte_nonumber
 10
611152.45
 20
4569158.57
 30
0.0
  0
VERTEX
  8
TH_south_platte_nonumber
 10
611351.01
 20
4569091.66
 30
0.0
  0
VERTEX
  8
TH_south_platte_nonumber
 10
611558.39
 20
4569029.91
 30
0.0
  0
VERTEX
  8
TH_south_platte_nonumber
 10
611659.87
 20
4568989.76
 30
0.0
  0
VERTEX
  8
TH_south_platte_nonumber
 10
611756.34
 20
4568943.25
 30
0.0
  0
VERTEX
  8
TH_south_platte_nonumber
 10
611953.13
 20
4568852.27
 30
0.0
  0
VERTEX
  8
TH_south_platte_nonumber
 10
612055.75
 20
4568813.7
 30
0.0
  0
VERTEX
  8
TH_south_platte_nonumber
 10
612706.55
 20
4568639.56
 30
0.0
  0
VERTEX
  8
TH_south_platte_nonumber
 10
613139.47
 20
4568545.99
 30
0.0
  0
VERTEX
  8
TH_south_platte_nonumber
 10
613244.36
 20
4568517.4
 30
0.0
  0
VERTEX
  8
TH_south_platte_nonumber
 10
613445.31
 20
4568448.3
 30
0.0
  0
VERTEX
  8
TH_south_platte_nonumber
 10
613546.46
 20
4568410.22
 30
0.0
  0
VERTEX
  8
TH_south_platte_nonumber
 10
613643.77
 20
4568379
 30
0.0
  0
VERTEX
  8
TH_south_platte_nonumber
 10
613847.2
 20
4568321.58
 30
0.0
  0
VERTEX
  8
TH_south_platte_nonumber
 10
614050.08
 20
4568269.49
 30
0.0
  0
VERTEX
  8
TH_south_platte_nonumber
 10
614249.95
 20
4568206.3
 30
0.0
  0
VERTEX
  8
TH_south_platte_nonumber
 10
614355.4
 20
4568177.31
 30
0.0
  0
VERTEX
  8
TH_south_platte_nonumber
 10
614657.15
 20
4568077.07
 30
0.0
  0
VERTEX
  8
TH_south_platte_nonumber
 10
614965.22
 20
4567990.5
 30
0.0
  0
VERTEX
  8
TH_south_platte_nonumber
 10
615275.36
 20
4567883.85
 30
0.0
  0
VERTEX
  8
TH_south_platte_nonumber
 10
615487.15
 20
4567804.23
 30
0.0
  0
VERTEX
  8
TH_south_platte_nonumber
 10
615591.91
 20
4567769.77
 30
0.0
  0
VERTEX
  8
TH_south_platte_nonumber
 10
615803.38
 20
4567712.86
 30
0.0
  0
VERTEX
  8
TH_south_platte_nonumber
 10
615908.11
 20
4567675.15
 30
0.0
  0
VERTEX
  8
TH_south_platte_nonumber
 10
616114.18
 20
4567608.4
 30
0.0
  0
VERTEX
  8
TH_south_platte_nonumber
 10
616524.5
 20
4567492.67
 30
0.0
  0
VERTEX
  8
TH_south_platte_nonumber
 10
616725.01
 20
4567444.62
 30
0.0
  0
VERTEX
  8
TH_south_platte_nonumber
 10
616904.01
 20
4567377.15
 30
0.0
  0
VERTEX
  8
TH_south_platte_nonumber
 10
617185.72
 20
4567301.82
 30
0.0
  0
VERTEX
  8
TH_south_platte_nonumber
 10
617278.97
 20
4567269.73
 30
0.0
  0
VERTEX
  8
TH_south_platte_nonumber
 10
617371.12
 20
4567232.24
 30
0.0
  0
VERTEX
  8
TH_south_platte_nonumber
 10
617465.23
 20
4567199.4
 30
0.0
  0
VERTEX
  8
TH_south_platte_nonumber
 10
617657.64
 20
4567144.37
 30
0.0
  0
VERTEX
  8
TH_south_platte_nonumber
 10
617856.68
 20
4567091.71
 30
0.0
  0
VERTEX
  8
TH_south_platte_nonumber
 10
618048.85
 20
4567021.58
 30
0.0
  0
VERTEX
  8
TH_south_platte_nonumber
 10
618351.35
 20
4566929.91
 30
0.0
  0
VERTEX
  8
TH_south_platte_nonumber
 10
618551.75
 20
4566875.84
 30
0.0
  0
VERTEX
  8
TH_south_platte_nonumber
 10
618645.62
 20
4566844.91
 30
0.0
  0
VERTEX
  8
TH_south_platte_nonumber
 10
618836.13
 20
4566789.17
 30
0.0
  0
VERTEX
  8
TH_south_platte_nonumber
 10
619237.72
 20
4566664.59
 30
0.0
  0
VERTEX
  8
TH_south_platte_nonumber
 10
619450.4
 20
4566608.21
 30
0.0
  0
VERTEX
  8
TH_south_platte_nonumber
 10
619649.16
 20
4566548.86
 30
0.0
  0
VERTEX
  8
TH_south_platte_nonumber
 10
619943.73
 20
4566438.86
 30
0.0
  0
VERTEX
  8
TH_south_platte_nonumber
 10
620155.21
 20
4566373.34
 30
0.0
  0
VERTEX
  8
TH_south_platte_nonumber
 10
620261.99
 20
4566336.46
 30
0.0
  0
VERTEX
  8
TH_south_platte_nonumber
 10
620694.11
 20
4566204.42
 30
0.0
  0
VERTEX
  8
TH_south_platte_nonumber
 10
621024.27
 20
4566111.54
 30
0.0
  0
SEQEND
  8
TH_south_platte_nonumber
  0
POLYLINE
  8
TH_south_platte_nonumber
 66
1
 40
29.9999845
 41
29.9999845
 62
7
 10
620866.96
 20
4566011.38
 30
0.0
  0
VERTEX
  8
TH_south_platte_nonumber
 10
620866.96
 20
4566011.38
 30
0.0
  0
VERTEX
  8
TH_south_platte_nonumber
 10
620921.59
 20
4566093.11
 30
0.0
  0
VERTEX
  8
TH_south_platte_nonumber
 10
620971.09
 20
4566180.43
 30
0.0
  0
VERTEX
  8
TH_south_platte_nonumber
 10
621028.83
 20
4566268.84
 30
0.0
  0
VERTEX
  8
TH_south_platte_nonumber
 10
621088.55
 20
4566350.81
 30
0.0
  0
VERTEX
  8
TH_south_platte_nonumber
 10
621148.24
 20
4566431.71
 30
0.0
  0
VERTEX
  8
TH_south_platte_nonumber
 10
621215.3
 20
4566504.64
 30
0.0
  0
VERTEX
  8
TH_south_platte_nonumber
 10
621283.44
 20
4566570.25
 30
0.0
  0
VERTEX
  8
TH_south_platte_nonumber
 10
621346.45
 20
4566639.6
 30
0.0
  0
VERTEX
  8
TH_south_platte_nonumber
 10
621468.6
 20
4566789.92
 30
0.0
  0
VERTEX
  8
TH_south_platte_nonumber
 10
621588.24
 20
4566948.33
 30
0.0
  0
VERTEX
  8
TH_south_platte_nonumber
 10
621781.92
 20
4567193.31
 30
0.0
  0
VERTEX
  8
TH_south_platte_nonumber
 10
621995.68
 20
4567448.39
 30
0.0
  0
VERTEX
  8
TH_south_platte_nonumber
 10
622139.58
 20
4567606.77
 30
0.0
  0
VERTEX
  8
TH_south_platte_nonumber
 10
622272.82
 20
4567766.52
 30
0.0
  0
VERTEX
  8
TH_south_platte_nonumber
 10
622340.5
 20
4567843.71
 30
0.0
  0
VERTEX
  8
TH_south_platte_nonumber
 10
622407.43
 20
4567930.27
 30
0.0
  0
VERTEX
  8
TH_south_platte_nonumber
 10
622471.83
 20
4568015.53
 30
0.0
  0
VERTEX
  8
TH_south_platte_nonumber
 10
622541.96
 20
4568096.84
 30
0.0
  0
VERTEX
  8
TH_south_platte_nonumber
 10
623133.62
 20
4568773.34
 30
0.0
  0
VERTEX
  8
TH_south_platte_nonumber
 10
623353.49
 20
4569034.48
 30
0.0
  0
VERTEX
  8
TH_south_platte_nonumber
 10
623485.26
 20
4569207.5
 30
0.0
  0
VERTEX
  8
TH_south_platte_nonumber
 10
623627.47
 20
4569372.62
 30
0.0
  0
VERTEX
  8
TH_south_platte_nonumber
 10
623690.82
 20
4569453.87
 30
0.0
  0
VERTEX
  8
TH_south_platte_nonumber
 10
623758.56
 20
4569532.75
 30
0.0
  0
VERTEX
  8
TH_south_platte_nonumber
 10
623831.28
 20
4569609.18
 30
0.0
  0
VERTEX
  8
TH_south_platte_nonumber
 10
623970.16
 20
4569772.05
 30
0.0
  0
VERTEX
  8
TH_south_platte_nonumber
 10
624116.18
 20
4569934.77
 30
0.0
  0
VERTEX
  8
TH_south_platte_nonumber
 10
624185.43
 20
4570021.8
 30
0.0
  0
VERTEX
  8
TH_south_platte_nonumber
 10
624333.56
 20
4570180.11
 30
0.0
  0
VERTEX
  8
TH_south_platte_nonumber
 10
624541.57
 20
4570422.53
 30
0.0
  0
VERTEX
  8
TH_south_platte_nonumber
 10
624673.73
 20
4570587.22
 30
0.0
  0
VERTEX
  8
TH_south_platte_nonumber
 10
624817.73
 20
4570750.73
 30
0.0
  0
VERTEX
  8
TH_south_platte_nonumber
 10
624881.91
 20
4570830.06
 30
0.0
  0
VERTEX
  8
TH_south_platte_nonumber
 10
625026.13
 20
4570990.79
 30
0.0
  0
VERTEX
  8
TH_south_platte_nonumber
 10
625089.56
 20
4571071.09
 30
0.0
  0
VERTEX
  8
TH_south_platte_nonumber
 10
625233.03
 20
4571236.81
 30
0.0
  0
VERTEX
  8
TH_south_platte_nonumber
 10
625373.75
 20
4571413.58
 30
0.0
  0
VERTEX
  8
TH_south_platte_nonumber
 10
625449.68
 20
4571496.87
 30
0.0
  0
VERTEX
  8
TH_south_platte_nonumber
 10
625519.88
 20
4571580.45
 30
0.0
  0
VERTEX
  8
TH_south_platte_nonumber
 10
625669.39
 20
4571744.84
 30
0.0
  0
VERTEX
  8
TH_south_platte_nonumber
 10
625814.97
 20
4571916.31
 30
0.0
  0
VERTEX
  8
TH_south_platte_nonumber
 10
625890.43
 20
4571996.12
 30
0.0
  0
VERTEX
  8
TH_south_platte_nonumber
 10
626030.92
 20
4572168.89
 30
0.0
  0
VERTEX
  8
TH_south_platte_nonumber
 10
626105.14
 20
4572250.57
 30
0.0
  0
VERTEX
  8
TH_south_platte_nonumber
 10
626175.76
 20
4572334.32
 30
0.0
  0
VERTEX
  8
TH_south_platte_nonumber
 10
626239.86
 20
4572422.34
 30
0.0
  0
VERTEX
  8
TH_south_platte_nonumber
 10
626371.16
 20
4572591.22
 30
0.0
  0
VERTEX
  8
TH_south_platte_nonumber
 10
626431.4
 20
4572684.12
 30
0.0
  0
VERTEX
  8
TH_south_platte_nonumber
 10
626627.48
 20
4572944.87
 30
0.0
  0
VERTEX
  8
TH_south_platte_nonumber
 10
626663.57
 20
4572984.98
 30
0.0
  0
VERTEX
  8
TH_south_platte_nonumber
 10
626782.01
 20
4573095.54
 30
0.0
  0
VERTEX
  8
TH_south_platte_nonumber
 10
626925.49
 20
4573261.74
 30
0.0
  0
VERTEX
  8
TH_south_platte_nonumber
 10
627299.27
 20
4573664.61
 30
0.0
  0
VERTEX
  8
TH_south_platte_nonumber
 10
627590.08
 20
4574011.93
 30
0.0
  0
VERTEX
  8
TH_south_platte_nonumber
 10
627658.8
 20
4574098.31
 30
0.0
  0
VERTEX
  8
TH_south_platte_nonumber
 10
627798.07
 20
4574260.8
 30
0.0
  0
VERTEX
  8
TH_south_platte_nonumber
 10
628112.15
 20
4574667.69
 30
0.0
  0
VERTEX
  8
TH_south_platte_nonumber
 10
628306.02
 20
4574893.48
 30
0.0
  0
VERTEX
  8
TH_south_platte_nonumber
 10
628439.06
 20
4575036.41
 30
0.0
  0
VERTEX
  8
TH_south_platte_nonumber
 10
628628.9
 20
4575273.81
 30
0.0
  0
VERTEX
  8
TH_south_platte_nonumber
 10
628984.99
 20
4575672.01
 30
0.0
  0
VERTEX
  8
TH_south_platte_nonumber
 10
629121.07
 20
4575851.21
 30
0.0
  0
VERTEX
  8
TH_south_platte_nonumber
 10
629333.53
 20
4576111.68
 30
0.0
  0
VERTEX
  8
TH_south_platte_nonumber
 10
629620.53
 20
4576444.81
 30
0.0
  0
VERTEX
  8
TH_south_platte_nonumber
 10
629770.5
 20
4576606.71
 30
0.0
  0
VERTEX
  8
TH_south_platte_nonumber
 10
630263.71
 20
4577185.72
 30
0.0
  0
VERTEX
  8
TH_south_platte_nonumber
 10
630384.61
 20
4577351.47
 30
0.0
  0
VERTEX
  8
TH_south_platte_nonumber
 10
630452.04
 20
4577433.92
 30
0.0
  0
VERTEX
  8
TH_south_platte_nonumber
 10
630589.42
 20
4577590.75
 30
0.0
  0
VERTEX
  8
TH_south_platte_nonumber
 10
630731.83
 20
4577765.81
 30
0.0
  0
VERTEX
  8
TH_south_platte_nonumber
 10
631021.09
 20
4578105.83
 30
0.0
  0
VERTEX
  8
TH_south_platte_nonumber
 10
631173.97
 20
4578274.08
 30
0.0
  0
VERTEX
  8
TH_south_platte_nonumber
 10
631322.89
 20
4578449.4
 30
0.0
  0
VERTEX
  8
TH_south_platte_nonumber
 10
631404.03
 20
4578537.06
 30
0.0
  0
VERTEX
  8
TH_south_platte_nonumber
 10
631559.58
 20
4578721.77
 30
0.0
  0
VERTEX
  8
TH_south_platte_nonumber
 10
631720.64
 20
4578900.74
 30
0.0
  0
VERTEX
  8
TH_south_platte_nonumber
 10
632394.01
 20
4579717.65
 30
0.0
  0
VERTEX
  8
TH_south_platte_nonumber
 10
632542.16
 20
4579887.66
 30
0.0
  0
VERTEX
  8
TH_south_platte_nonumber
 10
632837.55
 20
4580214.06
 30
0.0
  0
VERTEX
  8
TH_south_platte_nonumber
 10
632979.39
 20
4580377.35
 30
0.0
  0
VERTEX
  8
TH_south_platte_nonumber
 10
633180.72
 20
4580627.46
 30
0.0
  0
VERTEX
  8
TH_south_platte_nonumber
 10
633307.9
 20
4580793.01
 30
0.0
  0
VERTEX
  8
TH_south_platte_nonumber
 10
633447.5
 20
4580954.86
 30
0.0
  0
VERTEX
  8
TH_south_platte_nonumber
 10
633583.23
 20
4581125.41
 30
0.0
  0
VERTEX
  8
TH_south_platte_nonumber
 10
633940.42
 20
4581536.86
 30
0.0
  0
VERTEX
  8
TH_south_platte_nonumber
 10
634008.31
 20
4581622.46
 30
0.0
  0
VERTEX
  8
TH_south_platte_nonumber
 10
634085.18
 20
4581704.46
 30
0.0
  0
VERTEX
  8
TH_south_platte_nonumber
 10
634164.65
 20
4581782.91
 30
0.0
  0
VERTEX
  8
TH_south_platte_nonumber
 10
634305.07
 20
4581952.39
 30
0.0
  0
VERTEX
  8
TH_south_platte_nonumber
 10
634379.33
 20
4582035.96
 30
0.0
  0
VERTEX
  8
TH_south_platte_nonumber
 10
634449.11
 20
4582123.21
 30
0.0
  0
VERTEX
  8
TH_south_platte_nonumber
 10
634514.03
 20
4582212.31
 30
0.0
  0
VERTEX
  8
TH_south_platte_nonumber
 10
634719.69
 20
4582472.1
 30
0.0
  0
VERTEX
  8
TH_south_platte_nonumber
 10
634871.51
 20
4582628.65
 30
0.0
  0
VERTEX
  8
TH_south_platte_nonumber
 10
635002.52
 20
4582798.3
 30
0.0
  0
VERTEX
  8
TH_south_platte_nonumber
 10
635073.19
 20
4582872.96
 30
0.0
  0
VERTEX
  8
TH_south_platte_nonumber
 10
635143.17
 20
4582953.9
 30
0.0
  0
VERTEX
  8
TH_south_platte_nonumber
 10
635208.95
 20
4583040.11
 30
0.0
  0
VERTEX
  8
TH_south_platte_nonumber
 10
635352.21
 20
4583207.18
 30
0.0
  0
VERTEX
  8
TH_south_platte_nonumber
 10
635418.64
 20
4583291.77
 30
0.0
  0
VERTEX
  8
TH_south_platte_nonumber
 10
635489.1
 20
4583370.82
 30
0.0
  0
VERTEX
  8
TH_south_platte_nonumber
 10
635564.14
 20
4583447.08
 30
0.0
  0
VERTEX
  8
TH_south_platte_nonumber
 10
635702.6
 20
4583606.32
 30
0.0
  0
VERTEX
  8
TH_south_platte_nonumber
 10
635803.89
 20
4583714.7
 30
0.0
  0
SEQEND
  8
TH_south_platte_nonumber
  0
POLYLINE
  8
TH_south_platte_nonumber
 66
1
 40
29.9999845
 41
29.9999845
 62
7
 10
635588.63
 20
4583724.53
 30
0.0
  0
VERTEX
  8
TH_south_platte_nonumber
 10
635588.63
 20
4583724.53
 30
0.0
  0
VERTEX
  8
TH_south_platte_nonumber
 10
635886.22
 20
4583380.24
 30
0.0
  0
VERTEX
  8
TH_south_platte_nonumber
 10
636109.92
 20
4583114.93
 30
0.0
  0
VERTEX
  8
TH_south_platte_nonumber
 10
636343.15
 20
4582864.67
 30
0.0
  0
VERTEX
  8
TH_south_platte_nonumber
 10
636502.71
 20
4582702.75
 30
0.0
  0
VERTEX
  8
TH_south_platte_nonumber
 10
636970.28
 20
4582202.22
 30
0.0
  0
VERTEX
  8
TH_south_platte_nonumber
 10
637124.09
 20
4582032.8
 30
0.0
  0
VERTEX
  8
TH_south_platte_nonumber
 10
637459.33
 20
4581718.99
 30
0.0
  0
VERTEX
  8
TH_south_platte_nonumber
 10
637540.09
 20
4581636.54
 30
0.0
  0
VERTEX
  8
TH_south_platte_nonumber
 10
637613.49
 20
4581551.5
 30
0.0
  0
VERTEX
  8
TH_south_platte_nonumber
 10
637748.56
 20
4581378.69
 30
0.0
  0
VERTEX
  8
TH_south_platte_nonumber
 10
637820.64
 20
4581295.15
 30
0.0
  0
VERTEX
  8
TH_south_platte_nonumber
 10
637896.22
 20
4581214.17
 30
0.0
  0
VERTEX
  8
TH_south_platte_nonumber
 10
638027.31
 20
4581039.79
 30
0.0
  0
VERTEX
  8
TH_south_platte_nonumber
 10
638179.52
 20
4580879.77
 30
0.0
  0
VERTEX
  8
TH_south_platte_nonumber
 10
638248.98
 20
4580793.39
 30
0.0
  0
VERTEX
  8
TH_south_platte_nonumber
 10
638325.04
 20
4580712.55
 30
0.0
  0
VERTEX
  8
TH_south_platte_nonumber
 10
638474.31
 20
4580544.65
 30
0.0
  0
VERTEX
  8
TH_south_platte_nonumber
 10
638626.92
 20
4580380.18
 30
0.0
  0
VERTEX
  8
TH_south_platte_nonumber
 10
638772.05
 20
4580206.02
 30
0.0
  0
VERTEX
  8
TH_south_platte_nonumber
 10
639219.42
 20
4579708.41
 30
0.0
  0
VERTEX
  8
TH_south_platte_nonumber
 10
639533.54
 20
4579371.29
 30
0.0
  0
VERTEX
  8
TH_south_platte_nonumber
 10
639687.33
 20
4579200.53
 30
0.0
  0
VERTEX
  8
TH_south_platte_nonumber
 10
639930.66
 20
4578942.64
 30
0.0
  0
VERTEX
  8
TH_south_platte_nonumber
 10
640086.85
 20
4578768.95
 30
0.0
  0
VERTEX
  8
TH_south_platte_nonumber
 10
640168.41
 20
4578686.42
 30
0.0
  0
VERTEX
  8
TH_south_platte_nonumber
 10
640318.15
 20
4578519.39
 30
0.0
  0
VERTEX
  8
TH_south_platte_nonumber
 10
640472.3
 20
4578358.81
 30
0.0
  0
VERTEX
  8
TH_south_platte_nonumber
 10
640545.82
 20
4578277.51
 30
0.0
  0
VERTEX
  8
TH_south_platte_nonumber
 10
640700.56
 20
4578114.47
 30
0.0
  0
VERTEX
  8
TH_south_platte_nonumber
 10
640771.45
 20
4578026.87
 30
0.0
  0
VERTEX
  8
TH_south_platte_nonumber
 10
640846.94
 20
4577940.46
 30
0.0
  0
VERTEX
  8
TH_south_platte_nonumber
 10
640926.45
 20
4577858.86
 30
0.0
  0
VERTEX
  8
TH_south_platte_nonumber
 10
641234.05
 20
4577516.27
 30
0.0
  0
VERTEX
  8
TH_south_platte_nonumber
 10
641383.08
 20
4577343.55
 30
0.0
  0
VERTEX
  8
TH_south_platte_nonumber
 10
641534.41
 20
4577175.05
 30
0.0
  0
VERTEX
  8
TH_south_platte_nonumber
 10
641847.61
 20
4576838.65
 30
0.0
  0
VERTEX
  8
TH_south_platte_nonumber
 10
641929.38
 20
4576754.53
 30
0.0
  0
VERTEX
  8
TH_south_platte_nonumber
 10
642163.2
 20
4576492.01
 30
0.0
  0
VERTEX
  8
TH_south_platte_nonumber
 10
642310.75
 20
4576312.99
 30
0.0
  0
VERTEX
  8
TH_south_platte_nonumber
 10
642462.13
 20
4576137.07
 30
0.0
  0
VERTEX
  8
TH_south_platte_nonumber
 10
642534.9
 20
4576046.95
 30
0.0
  0
VERTEX
  8
TH_south_platte_nonumber
 10
642612.08
 20
4575959.21
 30
0.0
  0
VERTEX
  8
TH_south_platte_nonumber
 10
642693.61
 20
4575875.11
 30
0.0
  0
VERTEX
  8
TH_south_platte_nonumber
 10
642779.52
 20
4575792.8
 30
0.0
  0
VERTEX
  8
TH_south_platte_nonumber
 10
642957.95
 20
4575635.39
 30
0.0
  0
VERTEX
  8
TH_south_platte_nonumber
 10
643035.49
 20
4575550.01
 30
0.0
  0
VERTEX
  8
TH_south_platte_nonumber
 10
643110.11
 20
4575461.27
 30
0.0
  0
VERTEX
  8
TH_south_platte_nonumber
 10
643269.03
 20
4575293.21
 30
0.0
  0
VERTEX
  8
TH_south_platte_nonumber
 10
643417.12
 20
4575122.61
 30
0.0
  0
VERTEX
  8
TH_south_platte_nonumber
 10
643570.23
 20
4574954.43
 30
0.0
  0
VERTEX
  8
TH_south_platte_nonumber
 10
644015.12
 20
4574442.24
 30
0.0
  0
VERTEX
  8
TH_south_platte_nonumber
 10
644178.65
 20
4574266.49
 30
0.0
  0
VERTEX
  8
TH_south_platte_nonumber
 10
644501.48
 20
4573934.94
 30
0.0
  0
VERTEX
  8
TH_south_platte_nonumber
 10
644648.49
 20
4573772.37
 30
0.0
  0
VERTEX
  8
TH_south_platte_nonumber
 10
644937.87
 20
4573441.84
 30
0.0
  0
VERTEX
  8
TH_south_platte_nonumber
 10
645076.82
 20
4573273.95
 30
0.0
  0
VERTEX
  8
TH_south_platte_nonumber
 10
645148.62
 20
4573193.88
 30
0.0
  0
VERTEX
  8
TH_south_platte_nonumber
 10
645382.96
 20
4572963.23
 30
0.0
  0
VERTEX
  8
TH_south_platte_nonumber
 10
645468.89
 20
4572885.64
 30
0.0
  0
VERTEX
  8
TH_south_platte_nonumber
 10
645545.83
 20
4572806.19
 30
0.0
  0
VERTEX
  8
TH_south_platte_nonumber
 10
645692.51
 20
4572633.48
 30
0.0
  0
VERTEX
  8
TH_south_platte_nonumber
 10
645854.98
 20
4572462.84
 30
0.0
  0
VERTEX
  8
TH_south_platte_nonumber
 10
646098.31
 20
4572198.51
 30
0.0
  0
VERTEX
  8
TH_south_platte_nonumber
 10
646175.44
 20
4572106.13
 30
0.0
  0
VERTEX
  8
TH_south_platte_nonumber
 10
646409.49
 20
4571840.94
 30
0.0
  0
VERTEX
  8
TH_south_platte_nonumber
 10
646655.95
 20
4571576.39
 30
0.0
  0
VERTEX
  8
TH_south_platte_nonumber
 10
646816.66
 20
4571396.4
 30
0.0
  0
VERTEX
  8
TH_south_platte_nonumber
 10
646965.54
 20
4571220.76
 30
0.0
  0
VERTEX
  8
TH_south_platte_nonumber
 10
647122.22
 20
4571062.5
 30
0.0
  0
VERTEX
  8
TH_south_platte_nonumber
 10
647266.57
 20
4570895.35
 30
0.0
  0
VERTEX
  8
TH_south_platte_nonumber
 10
647419.73
 20
4570735.21
 30
0.0
  0
VERTEX
  8
TH_south_platte_nonumber
 10
647494.54
 20
4570650.52
 30
0.0
  0
VERTEX
  8
TH_south_platte_nonumber
 10
647728.51
 20
4570410.34
 30
0.0
  0
VERTEX
  8
TH_south_platte_nonumber
 10
648099.43
 20
4569972.31
 30
0.0
  0
VERTEX
  8
TH_south_platte_nonumber
 10
648179.16
 20
4569882.67
 30
0.0
  0
VERTEX
  8
TH_south_platte_nonumber
 10
648261.7
 20
4569796.64
 30
0.0
  0
VERTEX
  8
TH_south_platte_nonumber
 10
648410.02
 20
4569626.74
 30
0.0
  0
VERTEX
  8
TH_south_platte_nonumber
 10
648490.54
 20
4569543.49
 30
0.0
  0
VERTEX
  8
TH_south_platte_nonumber
 10
648642.02
 20
4569373.81
 30
0.0
  0
VERTEX
  8
TH_south_platte_nonumber
 10
648803.3
 20
4569211.38
 30
0.0
  0
VERTEX
  8
TH_south_platte_nonumber
 10
648962.82
 20
4569041.72
 30
0.0
  0
VERTEX
  8
TH_south_platte_nonumber
 10
649043.55
 20
4568960.47
 30
0.0
  0
VERTEX
  8
TH_south_platte_nonumber
 10
649188
 20
4568781.29
 30
0.0
  0
VERTEX
  8
TH_south_platte_nonumber
 10
649411.78
 20
4568529.9
 30
0.0
  0
VERTEX
  8
TH_south_platte_nonumber
 10
649567.22
 20
4568364.98
 30
0.0
  0
VERTEX
  8
TH_south_platte_nonumber
 10
649715.92
 20
4568198.39
 30
0.0
  0
VERTEX
  8
TH_south_platte_nonumber
 10
649797.11
 20
4568114.33
 30
0.0
  0
VERTEX
  8
TH_south_platte_nonumber
 10
649940.56
 20
4567938.59
 30
0.0
  0
VERTEX
  8
TH_south_platte_nonumber
 10
650165.74
 20
4567688.5
 30
0.0
  0
VERTEX
  8
TH_south_platte_nonumber
 10
650321.89
 20
4567522.97
 30
0.0
  0
VERTEX
  8
TH_south_platte_nonumber
 10
650476.83
 20
4567351.8
 30
0.0
  0
VERTEX
  8
TH_south_platte_nonumber
 10
650643.67
 20
4567183.81
 30
0.0
  0
VERTEX
  8
TH_south_platte_nonumber
 10
650798.78
 20
4567009.71
 30
0.0
  0
VERTEX
  8
TH_south_platte_nonumber
 10
651114.59
 20
4566675.33
 30
0.0
  0
VERTEX
  8
TH_south_platte_nonumber
 10
651411.7
 20
4566330.06
 30
0.0
  0
VERTEX
  8
TH_south_platte_nonumber
 10
651710.7
 20
4565999.97
 30
0.0
  0
VERTEX
  8
TH_south_platte_nonumber
 10
651864.46
 20
4565840.24
 30
0.0
  0
VERTEX
  8
TH_south_platte_nonumber
 10
652162.81
 20
4565518.41
 30
0.0
  0
VERTEX
  8
TH_south_platte_nonumber
 10
652231.89
 20
4565432.18
 30
0.0
  0
VERTEX
  8
TH_south_platte_nonumber
 10
652305.63
 20
4565348.77
 30
0.0
  0
VERTEX
  8
TH_south_platte_nonumber
 10
652383.34
 20
4565270.83
 30
0.0
  0
VERTEX
  8
TH_south_platte_nonumber
 10
652455.31
 20
4565188.52
 30
0.0
  0
VERTEX
  8
TH_south_platte_nonumber
 10
652522.91
 20
4565098.85
 30
0.0
  0
VERTEX
  8
TH_south_platte_nonumber
 10
652594.25
 20
4565015.27
 30
0.0
  0
VERTEX
  8
TH_south_platte_nonumber
 10
652899.59
 20
4564697.02
 30
0.0
  0
VERTEX
  8
TH_south_platte_nonumber
 10
653045.41
 20
4564523.39
 30
0.0
  0
VERTEX
  8
TH_south_platte_nonumber
 10
653199.46
 20
4564374.71
 30
0.0
  0
VERTEX
  8
TH_south_platte_nonumber
 10
653419.99
 20
4564135.99
 30
0.0
  0
VERTEX
  8
TH_south_platte_nonumber
 10
653559.75
 20
4563973.39
 30
0.0
  0
VERTEX
  8
TH_south_platte_nonumber
 10
653632.03
 20
4563896.51
 30
0.0
  0
VERTEX
  8
TH_south_platte_nonumber
 10
653734.37
 20
4563777.48
 30
0.0
  0
SEQEND
  8
TH_south_platte_nonumber
  0
ENDSEC
  0
EOF
