  0
SECTION
  2
HEADER
  9
$ACADVER
  1
AC1009
  9
$FILLMODE
 70
1
  9
$EXTMIN
 10
691130.64
 20
4553269.92
 30
0.0
  9
$EXTMAX
 10
706132.319
 20
4563279.36
 30
0.0
  9
$LIMMIN
 10
691130.64
 20
4553269.92
  9
$LIMMAX
 10
706132.319
 20
4563279.36
  0
ENDSEC
  0
SECTION
  2
TABLES
  0
TABLE
  2
LTYPE
 70
    11
  0
LTYPE
  2
CONTINUOUS
 70
    64
  3
Solid 
 72
    65
 73
     0
 40
0.0
  0
LTYPE
  2
DASHED
 70
    64
  3
__ __ __ __ __ __ __ __ __ __ __ __ __ __ __
 72
    65
 73
     2
 40
1.00
 49
0.8
 49
-0.2
  0
LTYPE
  2
DOT
 70
    64
  3
...............................................
 72
    65
 73
     8
 40
1.00
 49
0.05
 49
-0.20
 49
0.05
 49
-0.20
 49
0.05
 49
-0.20
 49
0.05
 49
-0.20
  0
LTYPE
  2
SHORT-DASHED
 70
    64
  3
_ _ _ _ _ _ _ _ _ _ _ _ _ _ _ _ _ _ _ _ _ _ _ 
 72
    65
 73
     4
 40
1.0
 49
.25
 49
-0.25
 49
0.25
 49
-0.25
  0
LTYPE
  2
LONG-SHORT-DASHED
 70
    64
  3
____ _ ____ _ ____ _ ____ _ ____ _ ____ _ ____
 72
    65
 73
     4
 40
1.0
 49
.5
 49
-0.125
 49
0.25
 49
-0.125
  0
LTYPE
  2
DASHDOT
 70
    64
  3
__ . __ . __ . __ . __ . __ . __ . __ . __ . __
 72
    65
 73
     4
 40
1.0
 49
0.65
 49
-0.15
 49
0.05
 49
-0.15
  0
LTYPE
  2
BORDER
 70
     0
  3
__ __ . __ __ . __ __ . __ __ . __ __ . __ __
 72
    65
 73
     6
 40
1.0
 49
0.325
 49
-0.10
 49
0.325
 49
-0.10
 49
0.05
 49
-0.10
  0
LTYPE
  2
DIVIDE
 70
     0
  3
__ . . __ . . __ . . __ . . __ . . __ . . __
 72
    65
 73
     6
 40
1.25
 49
0.5
 49
-0.25
 49
0.0
 49
-0.25
 49
0.0
 49
-0.25
  0
LTYPE
  2
CENTERX2
 70
    64
  3
________  __  ________  __  ________  __  _____
 72
    65
 73
     4
 40
4.0
 49
2.5
 49
-0.5
 49
0.5
 49
-0.5
  0
LTYPE
  2
HIDDEN
 70
    64
  3
_ _ _ _ _ _ _ _ _ _ _ _ _ _ _ _ _ _ _ _ _ _ _
 72
    65
 73
     2
 40
0.375
 49
0.25
 49
-0.125
  0
LTYPE
  2
PHANTOM
 70
    64
  3
_____ _ _ _____ _ _ _____ _ _ _____ _ _ ____
 72
    65
 73
     6
 40
2.5
 49
1.25
 49
-0.25
 49
0.25
 49
-0.25
 49
0.25
 49
-0.25
  0
ENDTAB
  0
TABLE
  2
LAYER
 70
2
  0
LAYER
  2
0
 70
64
 62
7
  6
CONTINUOUS
  0
LAYER
  2
Data_PATH_09007_1_Final
 70
64
 62
7
  6
CONTINUOUS
  0
ENDTAB
  0
TABLE
  2
STYLE
 70
1
  0
STYLE
  2
ARIAL
 70
64
  3
ARIAL.TTF
  4

 40
0
 41
3
 42
1
 50
0
 71
0
  0
ENDTAB
  0
ENDSEC
  0
SECTION
  2
ENTITIES
  0
TEXT
  8
Data_PATH_09007_1_Final
 10
691145.001
 20
4562668.85
 30
0.0
  1
L10010 E
 11
691145.001
 21
4562668.85
 31
0.0
 40
59.9999929
 41
1
 50
-46.211
 51
0
 71
0
 62
7
  7
ARIAL
 72
2
 73
0
  0
TEXT
  8
Data_PATH_09007_1_Final
 10
699848.902
 20
4553588.98
 30
0.0
  1
L10010 E
 11
699848.902
 21
4553588.98
 31
0.0
 40
59.9999929
 41
1
 50
-46.211
 51
0
 71
0
 62
7
  7
ARIAL
  0
POLYLINE
  8
Data_PATH_09007_1_Final
 66
1
 40
3.59999957
 41
3.59999957
 62
7
 10
699837.342
 20
4553644.39
 30
0.0
  0
VERTEX
  8
Data_PATH_09007_1_Final
 10
699837.342
 20
4553644.39
 30
0.0
  0
VERTEX
  8
Data_PATH_09007_1_Final
 10
699797.052
 20
4553689.33
 30
0.0
  0
VERTEX
  8
Data_PATH_09007_1_Final
 10
699754.355
 20
4553734.52
 30
0.0
  0
VERTEX
  8
Data_PATH_09007_1_Final
 10
699712.04
 20
4553780
 30
0.0
  0
VERTEX
  8
Data_PATH_09007_1_Final
 10
699673.843
 20
4553825.41
 30
0.0
  0
VERTEX
  8
Data_PATH_09007_1_Final
 10
699604.86
 20
4553914.31
 30
0.0
  0
VERTEX
  8
Data_PATH_09007_1_Final
 10
699585.53
 20
4553936.46
 30
0.0
  0
VERTEX
  8
Data_PATH_09007_1_Final
 10
699564.744
 20
4553958.44
 30
0.0
  0
VERTEX
  8
Data_PATH_09007_1_Final
 10
699542.776
 20
4553979.98
 30
0.0
  0
VERTEX
  8
Data_PATH_09007_1_Final
 10
699519.763
 20
4554000.55
 30
0.0
  0
VERTEX
  8
Data_PATH_09007_1_Final
 10
699432.182
 20
4554075.06
 30
0.0
  0
VERTEX
  8
Data_PATH_09007_1_Final
 10
699394.453
 20
4554110.16
 30
0.0
  0
VERTEX
  8
Data_PATH_09007_1_Final
 10
699357.178
 20
4554149
 30
0.0
  0
VERTEX
  8
Data_PATH_09007_1_Final
 10
699210.487
 20
4554316.6
 30
0.0
  0
VERTEX
  8
Data_PATH_09007_1_Final
 10
699175.29
 20
4554354.22
 30
0.0
  0
VERTEX
  8
Data_PATH_09007_1_Final
 10
699136.646
 20
4554392.46
 30
0.0
  0
VERTEX
  8
Data_PATH_09007_1_Final
 10
699094.578
 20
4554431.03
 30
0.0
  0
VERTEX
  8
Data_PATH_09007_1_Final
 10
699008.891
 20
4554506.18
 30
0.0
  0
VERTEX
  8
Data_PATH_09007_1_Final
 10
698969.102
 20
4554543.29
 30
0.0
  0
VERTEX
  8
Data_PATH_09007_1_Final
 10
698890.517
 20
4554620.47
 30
0.0
  0
VERTEX
  8
Data_PATH_09007_1_Final
 10
698849.586
 20
4554659.42
 30
0.0
  0
VERTEX
  8
Data_PATH_09007_1_Final
 10
698807.473
 20
4554697.9
 30
0.0
  0
VERTEX
  8
Data_PATH_09007_1_Final
 10
698746.887
 20
4554755.16
 30
0.0
  0
VERTEX
  8
Data_PATH_09007_1_Final
 10
698728.696
 20
4554774.33
 30
0.0
  0
VERTEX
  8
Data_PATH_09007_1_Final
 10
698694.185
 20
4554813.73
 30
0.0
  0
VERTEX
  8
Data_PATH_09007_1_Final
 10
698625.192
 20
4554897.61
 30
0.0
  0
VERTEX
  8
Data_PATH_09007_1_Final
 10
698587.448
 20
4554940.17
 30
0.0
  0
VERTEX
  8
Data_PATH_09007_1_Final
 10
698511.322
 20
4555020.43
 30
0.0
  0
VERTEX
  8
Data_PATH_09007_1_Final
 10
698475.661
 20
4555059.78
 30
0.0
  0
VERTEX
  8
Data_PATH_09007_1_Final
 10
698403.606
 20
4555142.43
 30
0.0
  0
VERTEX
  8
Data_PATH_09007_1_Final
 10
698363.458
 20
4555185.42
 30
0.0
  0
VERTEX
  8
Data_PATH_09007_1_Final
 10
698321.222
 20
4555227.17
 30
0.0
  0
VERTEX
  8
Data_PATH_09007_1_Final
 10
698279.061
 20
4555266.91
 30
0.0
  0
VERTEX
  8
Data_PATH_09007_1_Final
 10
698238.905
 20
4555306.05
 30
0.0
  0
VERTEX
  8
Data_PATH_09007_1_Final
 10
698200.765
 20
4555347.71
 30
0.0
  0
VERTEX
  8
Data_PATH_09007_1_Final
 10
698182.319
 20
4555369.87
 30
0.0
  0
VERTEX
  8
Data_PATH_09007_1_Final
 10
698092.221
 20
4555491.12
 30
0.0
  0
VERTEX
  8
Data_PATH_09007_1_Final
 10
698055.869
 20
4555536.5
 30
0.0
  0
VERTEX
  8
Data_PATH_09007_1_Final
 10
698018.392
 20
4555578.97
 30
0.0
  0
VERTEX
  8
Data_PATH_09007_1_Final
 10
697978.86
 20
4555620.02
 30
0.0
  0
VERTEX
  8
Data_PATH_09007_1_Final
 10
697936.841
 20
4555661.06
 30
0.0
  0
VERTEX
  8
Data_PATH_09007_1_Final
 10
697893.525
 20
4555701.67
 30
0.0
  0
VERTEX
  8
Data_PATH_09007_1_Final
 10
697724.458
 20
4555851.76
 30
0.0
  0
VERTEX
  8
Data_PATH_09007_1_Final
 10
697682.556
 20
4555891.15
 30
0.0
  0
VERTEX
  8
Data_PATH_09007_1_Final
 10
697560.517
 20
4556011.34
 30
0.0
  0
VERTEX
  8
Data_PATH_09007_1_Final
 10
697523.87
 20
4556050.96
 30
0.0
  0
VERTEX
  8
Data_PATH_09007_1_Final
 10
697488.939
 20
4556091.88
 30
0.0
  0
VERTEX
  8
Data_PATH_09007_1_Final
 10
697453.136
 20
4556134.68
 30
0.0
  0
VERTEX
  8
Data_PATH_09007_1_Final
 10
697415.275
 20
4556178.37
 30
0.0
  0
VERTEX
  8
Data_PATH_09007_1_Final
 10
697375.713
 20
4556221.12
 30
0.0
  0
VERTEX
  8
Data_PATH_09007_1_Final
 10
697336.24
 20
4556261.48
 30
0.0
  0
VERTEX
  8
Data_PATH_09007_1_Final
 10
697298.361
 20
4556300.28
 30
0.0
  0
VERTEX
  8
Data_PATH_09007_1_Final
 10
697262.191
 20
4556339.48
 30
0.0
  0
VERTEX
  8
Data_PATH_09007_1_Final
 10
697188.428
 20
4556419.58
 30
0.0
  0
VERTEX
  8
Data_PATH_09007_1_Final
 10
697149.298
 20
4556458.23
 30
0.0
  0
VERTEX
  8
Data_PATH_09007_1_Final
 10
697070.205
 20
4556530.84
 30
0.0
  0
VERTEX
  8
Data_PATH_09007_1_Final
 10
697032.214
 20
4556567.76
 30
0.0
  0
VERTEX
  8
Data_PATH_09007_1_Final
 10
696918.718
 20
4556686.96
 30
0.0
  0
VERTEX
  8
Data_PATH_09007_1_Final
 10
696879.22
 20
4556725.42
 30
0.0
  0
VERTEX
  8
Data_PATH_09007_1_Final
 10
696839.572
 20
4556762.66
 30
0.0
  0
VERTEX
  8
Data_PATH_09007_1_Final
 10
696801.732
 20
4556799.94
 30
0.0
  0
VERTEX
  8
Data_PATH_09007_1_Final
 10
696766.451
 20
4556839.12
 30
0.0
  0
VERTEX
  8
Data_PATH_09007_1_Final
 10
696698.491
 20
4556920.47
 30
0.0
  0
VERTEX
  8
Data_PATH_09007_1_Final
 10
696661.855
 20
4556959.89
 30
0.0
  0
VERTEX
  8
Data_PATH_09007_1_Final
 10
696585.323
 20
4557033.18
 30
0.0
  0
VERTEX
  8
Data_PATH_09007_1_Final
 10
696548.265
 20
4557070.09
 30
0.0
  0
VERTEX
  8
Data_PATH_09007_1_Final
 10
696476.686
 20
4557149.55
 30
0.0
  0
VERTEX
  8
Data_PATH_09007_1_Final
 10
696439.486
 20
4557189.83
 30
0.0
  0
VERTEX
  8
Data_PATH_09007_1_Final
 10
696399.523
 20
4557228.97
 30
0.0
  0
VERTEX
  8
Data_PATH_09007_1_Final
 10
696316.854
 20
4557303.61
 30
0.0
  0
VERTEX
  8
Data_PATH_09007_1_Final
 10
696277.442
 20
4557340.95
 30
0.0
  0
VERTEX
  8
Data_PATH_09007_1_Final
 10
696237.884
 20
4557380.89
 30
0.0
  0
VERTEX
  8
Data_PATH_09007_1_Final
 10
696115.913
 20
4557510.43
 30
0.0
  0
VERTEX
  8
Data_PATH_09007_1_Final
 10
696032.846
 20
4557596.03
 30
0.0
  0
VERTEX
  8
Data_PATH_09007_1_Final
 10
695990.544
 20
4557640.96
 30
0.0
  0
VERTEX
  8
Data_PATH_09007_1_Final
 10
695819.013
 20
4557828.91
 30
0.0
  0
VERTEX
  8
Data_PATH_09007_1_Final
 10
695778.255
 20
4557876.14
 30
0.0
  0
VERTEX
  8
Data_PATH_09007_1_Final
 10
695701.497
 20
4557972.52
 30
0.0
  0
VERTEX
  8
Data_PATH_09007_1_Final
 10
695661.595
 20
4558018.55
 30
0.0
  0
VERTEX
  8
Data_PATH_09007_1_Final
 10
695640.625
 20
4558040.62
 30
0.0
  0
VERTEX
  8
Data_PATH_09007_1_Final
 10
695533.486
 20
4558143.3
 30
0.0
  0
VERTEX
  8
Data_PATH_09007_1_Final
 10
695412.956
 20
4558264.81
 30
0.0
  0
VERTEX
  8
Data_PATH_09007_1_Final
 10
695371.627
 20
4558303.34
 30
0.0
  0
VERTEX
  8
Data_PATH_09007_1_Final
 10
695329.36
 20
4558341.21
 30
0.0
  0
VERTEX
  8
Data_PATH_09007_1_Final
 10
695288.911
 20
4558379.23
 30
0.0
  0
VERTEX
  8
Data_PATH_09007_1_Final
 10
695250.955
 20
4558418.46
 30
0.0
  0
VERTEX
  8
Data_PATH_09007_1_Final
 10
695177.85
 20
4558500.69
 30
0.0
  0
VERTEX
  8
Data_PATH_09007_1_Final
 10
695139.364
 20
4558541.82
 30
0.0
  0
VERTEX
  8
Data_PATH_09007_1_Final
 10
695098.835
 20
4558582.69
 30
0.0
  0
VERTEX
  8
Data_PATH_09007_1_Final
 10
695059.161
 20
4558624.47
 30
0.0
  0
VERTEX
  8
Data_PATH_09007_1_Final
 10
695040.425
 20
4558646.05
 30
0.0
  0
VERTEX
  8
Data_PATH_09007_1_Final
 10
695023.007
 20
4558668.56
 30
0.0
  0
VERTEX
  8
Data_PATH_09007_1_Final
 10
694957.601
 20
4558761.71
 30
0.0
  0
VERTEX
  8
Data_PATH_09007_1_Final
 10
694923.676
 20
4558805.22
 30
0.0
  0
VERTEX
  8
Data_PATH_09007_1_Final
 10
694905.778
 20
4558825.61
 30
0.0
  0
VERTEX
  8
Data_PATH_09007_1_Final
 10
694886.962
 20
4558845.14
 30
0.0
  0
VERTEX
  8
Data_PATH_09007_1_Final
 10
694866.988
 20
4558863.91
 30
0.0
  0
VERTEX
  8
Data_PATH_09007_1_Final
 10
694845.445
 20
4558881.9
 30
0.0
  0
VERTEX
  8
Data_PATH_09007_1_Final
 10
694754.328
 20
4558952.41
 30
0.0
  0
VERTEX
  8
Data_PATH_09007_1_Final
 10
694733.188
 20
4558970.65
 30
0.0
  0
VERTEX
  8
Data_PATH_09007_1_Final
 10
694713.24
 20
4558989.28
 30
0.0
  0
VERTEX
  8
Data_PATH_09007_1_Final
 10
694694.352
 20
4559008.53
 30
0.0
  0
VERTEX
  8
Data_PATH_09007_1_Final
 10
694676.331
 20
4559028.48
 30
0.0
  0
VERTEX
  8
Data_PATH_09007_1_Final
 10
694641.366
 20
4559070.05
 30
0.0
  0
VERTEX
  8
Data_PATH_09007_1_Final
 10
694604.729
 20
4559110.59
 30
0.0
  0
VERTEX
  8
Data_PATH_09007_1_Final
 10
694585.391
 20
4559129.86
 30
0.0
  0
VERTEX
  8
Data_PATH_09007_1_Final
 10
694565.309
 20
4559148.49
 30
0.0
  0
VERTEX
  8
Data_PATH_09007_1_Final
 10
694481.482
 20
4559220.75
 30
0.0
  0
VERTEX
  8
Data_PATH_09007_1_Final
 10
694461.124
 20
4559239.77
 30
0.0
  0
VERTEX
  8
Data_PATH_09007_1_Final
 10
694441.828
 20
4559259.33
 30
0.0
  0
VERTEX
  8
Data_PATH_09007_1_Final
 10
694405.221
 20
4559299.4
 30
0.0
  0
VERTEX
  8
Data_PATH_09007_1_Final
 10
694370.106
 20
4559339.42
 30
0.0
  0
VERTEX
  8
Data_PATH_09007_1_Final
 10
694334.297
 20
4559377.38
 30
0.0
  0
VERTEX
  8
Data_PATH_09007_1_Final
 10
694255.905
 20
4559451.47
 30
0.0
  0
VERTEX
  8
Data_PATH_09007_1_Final
 10
694216.867
 20
4559489.5
 30
0.0
  0
VERTEX
  8
Data_PATH_09007_1_Final
 10
694179.924
 20
4559527.4
 30
0.0
  0
VERTEX
  8
Data_PATH_09007_1_Final
 10
694108.773
 20
4559603.98
 30
0.0
  0
VERTEX
  8
Data_PATH_09007_1_Final
 10
694073.133
 20
4559644.24
 30
0.0
  0
VERTEX
  8
Data_PATH_09007_1_Final
 10
693969.574
 20
4559768.94
 30
0.0
  0
VERTEX
  8
Data_PATH_09007_1_Final
 10
693933.44
 20
4559810.3
 30
0.0
  0
VERTEX
  8
Data_PATH_09007_1_Final
 10
693895.421
 20
4559851.25
 30
0.0
  0
VERTEX
  8
Data_PATH_09007_1_Final
 10
693779.776
 20
4559971.16
 30
0.0
  0
VERTEX
  8
Data_PATH_09007_1_Final
 10
693629.692
 20
4560132.5
 30
0.0
  0
VERTEX
  8
Data_PATH_09007_1_Final
 10
693473.834
 20
4560300.39
 30
0.0
  0
VERTEX
  8
Data_PATH_09007_1_Final
 10
693433.914
 20
4560342.2
 30
0.0
  0
VERTEX
  8
Data_PATH_09007_1_Final
 10
693391.867
 20
4560382.86
 30
0.0
  0
VERTEX
  8
Data_PATH_09007_1_Final
 10
693309.018
 20
4560458.92
 30
0.0
  0
VERTEX
  8
Data_PATH_09007_1_Final
 10
693148.657
 20
4560610.09
 30
0.0
  0
VERTEX
  8
Data_PATH_09007_1_Final
 10
693065.969
 20
4560684.79
 30
0.0
  0
VERTEX
  8
Data_PATH_09007_1_Final
 10
693024.256
 20
4560724.04
 30
0.0
  0
VERTEX
  8
Data_PATH_09007_1_Final
 10
692984.16
 20
4560765.67
 30
0.0
  0
VERTEX
  8
Data_PATH_09007_1_Final
 10
692908.514
 20
4560851.73
 30
0.0
  0
VERTEX
  8
Data_PATH_09007_1_Final
 10
692754.74
 20
4561021.5
 30
0.0
  0
VERTEX
  8
Data_PATH_09007_1_Final
 10
692639.071
 20
4561155.3
 30
0.0
  0
VERTEX
  8
Data_PATH_09007_1_Final
 10
692600.481
 20
4561197.48
 30
0.0
  0
VERTEX
  8
Data_PATH_09007_1_Final
 10
692436.651
 20
4561363.99
 30
0.0
  0
VERTEX
  8
Data_PATH_09007_1_Final
 10
692350.947
 20
4561453.31
 30
0.0
  0
VERTEX
  8
Data_PATH_09007_1_Final
 10
692268.244
 20
4561542.26
 30
0.0
  0
VERTEX
  8
Data_PATH_09007_1_Final
 10
692097.501
 20
4561722.68
 30
0.0
  0
VERTEX
  8
Data_PATH_09007_1_Final
 10
691939.016
 20
4561894.59
 30
0.0
  0
VERTEX
  8
Data_PATH_09007_1_Final
 10
691853.003
 20
4561983.02
 30
0.0
  0
VERTEX
  8
Data_PATH_09007_1_Final
 10
691769.776
 20
4562066.89
 30
0.0
  0
VERTEX
  8
Data_PATH_09007_1_Final
 10
691726.489
 20
4562109.37
 30
0.0
  0
VERTEX
  8
Data_PATH_09007_1_Final
 10
691680.669
 20
4562152.77
 30
0.0
  0
VERTEX
  8
Data_PATH_09007_1_Final
 10
691586.818
 20
4562239.49
 30
0.0
  0
VERTEX
  8
Data_PATH_09007_1_Final
 10
691496.884
 20
4562324.99
 30
0.0
  0
VERTEX
  8
Data_PATH_09007_1_Final
 10
691453.081
 20
4562369.05
 30
0.0
  0
VERTEX
  8
Data_PATH_09007_1_Final
 10
691410.983
 20
4562414.05
 30
0.0
  0
VERTEX
  8
Data_PATH_09007_1_Final
 10
691370.201
 20
4562459.99
 30
0.0
  0
VERTEX
  8
Data_PATH_09007_1_Final
 10
691251.879
 20
4562597.45
 30
0.0
  0
VERTEX
  8
Data_PATH_09007_1_Final
 10
691199.874
 20
4562654.96
 30
0.0
  0
SEQEND
  8
Data_PATH_09007_1_Final
  0
TEXT
  8
Data_PATH_09007_1_Final
 10
691567.7
 20
4562660.86
 30
0.0
  1
L10020 E
 11
691567.7
 21
4562660.86
 31
0.0
 40
59.9999929
 41
1
 50
-46.298
 51
0
 71
0
 62
7
  7
ARIAL
 72
2
 73
0
  0
TEXT
  8
Data_PATH_09007_1_Final
 10
700252.321
 20
4553573.43
 30
0.0
  1
L10020 E
 11
700252.321
 21
4553573.43
 31
0.0
 40
59.9999929
 41
1
 50
-46.298
 51
0
 71
0
 62
7
  7
ARIAL
  0
POLYLINE
  8
Data_PATH_09007_1_Final
 66
1
 40
3.59999957
 41
3.59999957
 62
7
 10
691622.552
 20
4562646.89
 30
0.0
  0
VERTEX
  8
Data_PATH_09007_1_Final
 10
691622.552
 20
4562646.89
 30
0.0
  0
VERTEX
  8
Data_PATH_09007_1_Final
 10
691654.264
 20
4562607.91
 30
0.0
  0
VERTEX
  8
Data_PATH_09007_1_Final
 10
691687.448
 20
4562568.91
 30
0.0
  0
VERTEX
  8
Data_PATH_09007_1_Final
 10
691721.56
 20
4562531.45
 30
0.0
  0
VERTEX
  8
Data_PATH_09007_1_Final
 10
691755.384
 20
4562496.05
 30
0.0
  0
VERTEX
  8
Data_PATH_09007_1_Final
 10
691789.517
 20
4562462.03
 30
0.0
  0
VERTEX
  8
Data_PATH_09007_1_Final
 10
691826.518
 20
4562427.98
 30
0.0
  0
VERTEX
  8
Data_PATH_09007_1_Final
 10
691907.806
 20
4562355.61
 30
0.0
  0
VERTEX
  8
Data_PATH_09007_1_Final
 10
691946.077
 20
4562318.63
 30
0.0
  0
VERTEX
  8
Data_PATH_09007_1_Final
 10
691980.762
 20
4562282.02
 30
0.0
  0
VERTEX
  8
Data_PATH_09007_1_Final
 10
692048.383
 20
4562206.36
 30
0.0
  0
VERTEX
  8
Data_PATH_09007_1_Final
 10
692163.825
 20
4562087.43
 30
0.0
  0
VERTEX
  8
Data_PATH_09007_1_Final
 10
692198.483
 20
4562048.62
 30
0.0
  0
VERTEX
  8
Data_PATH_09007_1_Final
 10
692267.2
 20
4561967.25
 30
0.0
  0
VERTEX
  8
Data_PATH_09007_1_Final
 10
692304.951
 20
4561926.84
 30
0.0
  0
VERTEX
  8
Data_PATH_09007_1_Final
 10
692383.078
 20
4561850.52
 30
0.0
  0
VERTEX
  8
Data_PATH_09007_1_Final
 10
692420.663
 20
4561812.41
 30
0.0
  0
VERTEX
  8
Data_PATH_09007_1_Final
 10
692495.096
 20
4561732.19
 30
0.0
  0
VERTEX
  8
Data_PATH_09007_1_Final
 10
692532.757
 20
4561693.99
 30
0.0
  0
VERTEX
  8
Data_PATH_09007_1_Final
 10
692570.832
 20
4561658.68
 30
0.0
  0
VERTEX
  8
Data_PATH_09007_1_Final
 10
692647.409
 20
4561590.63
 30
0.0
  0
VERTEX
  8
Data_PATH_09007_1_Final
 10
692666.35
 20
4561572.08
 30
0.0
  0
VERTEX
  8
Data_PATH_09007_1_Final
 10
692684.961
 20
4561552.47
 30
0.0
  0
VERTEX
  8
Data_PATH_09007_1_Final
 10
692703.019
 20
4561531.88
 30
0.0
  0
VERTEX
  8
Data_PATH_09007_1_Final
 10
692720.262
 20
4561510.52
 30
0.0
  0
VERTEX
  8
Data_PATH_09007_1_Final
 10
692781.549
 20
4561426.69
 30
0.0
  0
VERTEX
  8
Data_PATH_09007_1_Final
 10
692796.825
 20
4561407.19
 30
0.0
  0
VERTEX
  8
Data_PATH_09007_1_Final
 10
692813.226
 20
4561388.44
 30
0.0
  0
VERTEX
  8
Data_PATH_09007_1_Final
 10
692849.23
 20
4561351.55
 30
0.0
  0
VERTEX
  8
Data_PATH_09007_1_Final
 10
692887.904
 20
4561313.93
 30
0.0
  0
VERTEX
  8
Data_PATH_09007_1_Final
 10
692925.919
 20
4561274.86
 30
0.0
  0
VERTEX
  8
Data_PATH_09007_1_Final
 10
692997.314
 20
4561196.24
 30
0.0
  0
VERTEX
  8
Data_PATH_09007_1_Final
 10
693033.302
 20
4561158.36
 30
0.0
  0
VERTEX
  8
Data_PATH_09007_1_Final
 10
693147.984
 20
4561045.83
 30
0.0
  0
VERTEX
  8
Data_PATH_09007_1_Final
 10
693259.12
 20
4560929.69
 30
0.0
  0
VERTEX
  8
Data_PATH_09007_1_Final
 10
693375.145
 20
4560817.9
 30
0.0
  0
VERTEX
  8
Data_PATH_09007_1_Final
 10
693412.655
 20
4560780.13
 30
0.0
  0
VERTEX
  8
Data_PATH_09007_1_Final
 10
693480.983
 20
4560707.73
 30
0.0
  0
VERTEX
  8
Data_PATH_09007_1_Final
 10
693553.412
 20
4560633.42
 30
0.0
  0
VERTEX
  8
Data_PATH_09007_1_Final
 10
693625.74
 20
4560557.75
 30
0.0
  0
VERTEX
  8
Data_PATH_09007_1_Final
 10
693764.42
 20
4560403.57
 30
0.0
  0
VERTEX
  8
Data_PATH_09007_1_Final
 10
693840.042
 20
4560323.26
 30
0.0
  0
VERTEX
  8
Data_PATH_09007_1_Final
 10
693910.505
 20
4560246.65
 30
0.0
  0
VERTEX
  8
Data_PATH_09007_1_Final
 10
694012.654
 20
4560129.25
 30
0.0
  0
VERTEX
  8
Data_PATH_09007_1_Final
 10
694047.636
 20
4560090.72
 30
0.0
  0
VERTEX
  8
Data_PATH_09007_1_Final
 10
694084.248
 20
4560053.01
 30
0.0
  0
VERTEX
  8
Data_PATH_09007_1_Final
 10
694161.779
 20
4559977.27
 30
0.0
  0
VERTEX
  8
Data_PATH_09007_1_Final
 10
694199.418
 20
4559938.94
 30
0.0
  0
VERTEX
  8
Data_PATH_09007_1_Final
 10
694235.096
 20
4559900.54
 30
0.0
  0
VERTEX
  8
Data_PATH_09007_1_Final
 10
694305.08
 20
4559821.61
 30
0.0
  0
VERTEX
  8
Data_PATH_09007_1_Final
 10
694341.845
 20
4559781.58
 30
0.0
  0
VERTEX
  8
Data_PATH_09007_1_Final
 10
694380.274
 20
4559743.68
 30
0.0
  0
VERTEX
  8
Data_PATH_09007_1_Final
 10
694459.521
 20
4559669.48
 30
0.0
  0
VERTEX
  8
Data_PATH_09007_1_Final
 10
694574.721
 20
4559551.85
 30
0.0
  0
VERTEX
  8
Data_PATH_09007_1_Final
 10
694653.159
 20
4559475.96
 30
0.0
  0
VERTEX
  8
Data_PATH_09007_1_Final
 10
694692.233
 20
4559437.1
 30
0.0
  0
VERTEX
  8
Data_PATH_09007_1_Final
 10
694729.751
 20
4559396.7
 30
0.0
  0
VERTEX
  8
Data_PATH_09007_1_Final
 10
694800.854
 20
4559313.35
 30
0.0
  0
VERTEX
  8
Data_PATH_09007_1_Final
 10
694838.097
 20
4559271.9
 30
0.0
  0
VERTEX
  8
Data_PATH_09007_1_Final
 10
694877.35
 20
4559231.41
 30
0.0
  0
VERTEX
  8
Data_PATH_09007_1_Final
 10
694955.546
 20
4559154.08
 30
0.0
  0
VERTEX
  8
Data_PATH_09007_1_Final
 10
694993.514
 20
4559113.51
 30
0.0
  0
VERTEX
  8
Data_PATH_09007_1_Final
 10
695068.461
 20
4559029.38
 30
0.0
  0
VERTEX
  8
Data_PATH_09007_1_Final
 10
695107.114
 20
4558987.81
 30
0.0
  0
VERTEX
  8
Data_PATH_09007_1_Final
 10
695146.303
 20
4558948.2
 30
0.0
  0
VERTEX
  8
Data_PATH_09007_1_Final
 10
695225.661
 20
4558870.71
 30
0.0
  0
VERTEX
  8
Data_PATH_09007_1_Final
 10
695265.92
 20
4558829.82
 30
0.0
  0
VERTEX
  8
Data_PATH_09007_1_Final
 10
695381.585
 20
4558705.43
 30
0.0
  0
VERTEX
  8
Data_PATH_09007_1_Final
 10
695497.173
 20
4558587.6
 30
0.0
  0
VERTEX
  8
Data_PATH_09007_1_Final
 10
695536.193
 20
4558545.09
 30
0.0
  0
VERTEX
  8
Data_PATH_09007_1_Final
 10
695611.502
 20
4558459.46
 30
0.0
  0
VERTEX
  8
Data_PATH_09007_1_Final
 10
695649.316
 20
4558419.15
 30
0.0
  0
VERTEX
  8
Data_PATH_09007_1_Final
 10
695728.898
 20
4558340.36
 30
0.0
  0
VERTEX
  8
Data_PATH_09007_1_Final
 10
695769.719
 20
4558298.26
 30
0.0
  0
VERTEX
  8
Data_PATH_09007_1_Final
 10
695884.656
 20
4558173.47
 30
0.0
  0
VERTEX
  8
Data_PATH_09007_1_Final
 10
695959.777
 20
4558096.01
 30
0.0
  0
VERTEX
  8
Data_PATH_09007_1_Final
 10
695998.573
 20
4558054.03
 30
0.0
  0
VERTEX
  8
Data_PATH_09007_1_Final
 10
696074.351
 20
4557968.49
 30
0.0
  0
VERTEX
  8
Data_PATH_09007_1_Final
 10
696111.05
 20
4557929.3
 30
0.0
  0
VERTEX
  8
Data_PATH_09007_1_Final
 10
696148.617
 20
4557891.83
 30
0.0
  0
VERTEX
  8
Data_PATH_09007_1_Final
 10
696188.046
 20
4557854.01
 30
0.0
  0
VERTEX
  8
Data_PATH_09007_1_Final
 10
696228.279
 20
4557813.96
 30
0.0
  0
VERTEX
  8
Data_PATH_09007_1_Final
 10
696305.164
 20
4557734.01
 30
0.0
  0
VERTEX
  8
Data_PATH_09007_1_Final
 10
696343.135
 20
4557695.79
 30
0.0
  0
VERTEX
  8
Data_PATH_09007_1_Final
 10
696382.617
 20
4557658.28
 30
0.0
  0
VERTEX
  8
Data_PATH_09007_1_Final
 10
696463.362
 20
4557585.6
 30
0.0
  0
VERTEX
  8
Data_PATH_09007_1_Final
 10
696501.939
 20
4557549.6
 30
0.0
  0
VERTEX
  8
Data_PATH_09007_1_Final
 10
696615.727
 20
4557435.22
 30
0.0
  0
VERTEX
  8
Data_PATH_09007_1_Final
 10
696696.694
 20
4557358.45
 30
0.0
  0
VERTEX
  8
Data_PATH_09007_1_Final
 10
696734.998
 20
4557320.76
 30
0.0
  0
VERTEX
  8
Data_PATH_09007_1_Final
 10
696771.077
 20
4557282.6
 30
0.0
  0
VERTEX
  8
Data_PATH_09007_1_Final
 10
696844.096
 20
4557200.2
 30
0.0
  0
VERTEX
  8
Data_PATH_09007_1_Final
 10
696883.778
 20
4557157.28
 30
0.0
  0
VERTEX
  8
Data_PATH_09007_1_Final
 10
696963.11
 20
4557075.5
 30
0.0
  0
VERTEX
  8
Data_PATH_09007_1_Final
 10
697001.109
 20
4557034.82
 30
0.0
  0
VERTEX
  8
Data_PATH_09007_1_Final
 10
697079.762
 20
4556945.06
 30
0.0
  0
VERTEX
  8
Data_PATH_09007_1_Final
 10
697121.598
 20
4556898.61
 30
0.0
  0
VERTEX
  8
Data_PATH_09007_1_Final
 10
697164.653
 20
4556853.83
 30
0.0
  0
VERTEX
  8
Data_PATH_09007_1_Final
 10
697248.849
 20
4556768.72
 30
0.0
  0
VERTEX
  8
Data_PATH_09007_1_Final
 10
697289.471
 20
4556723.89
 30
0.0
  0
VERTEX
  8
Data_PATH_09007_1_Final
 10
697372.125
 20
4556626.71
 30
0.0
  0
VERTEX
  8
Data_PATH_09007_1_Final
 10
697414.159
 20
4556580.52
 30
0.0
  0
VERTEX
  8
Data_PATH_09007_1_Final
 10
697456.148
 20
4556537.68
 30
0.0
  0
VERTEX
  8
Data_PATH_09007_1_Final
 10
697497.823
 20
4556496.55
 30
0.0
  0
VERTEX
  8
Data_PATH_09007_1_Final
 10
697538.469
 20
4556454.61
 30
0.0
  0
VERTEX
  8
Data_PATH_09007_1_Final
 10
697617.395
 20
4556366.05
 30
0.0
  0
VERTEX
  8
Data_PATH_09007_1_Final
 10
697658.053
 20
4556321.98
 30
0.0
  0
VERTEX
  8
Data_PATH_09007_1_Final
 10
697700.514
 20
4556280.28
 30
0.0
  0
VERTEX
  8
Data_PATH_09007_1_Final
 10
697786.549
 20
4556202.48
 30
0.0
  0
VERTEX
  8
Data_PATH_09007_1_Final
 10
697827.742
 20
4556162.4
 30
0.0
  0
VERTEX
  8
Data_PATH_09007_1_Final
 10
697867.079
 20
4556120.7
 30
0.0
  0
VERTEX
  8
Data_PATH_09007_1_Final
 10
697941.475
 20
4556036.56
 30
0.0
  0
VERTEX
  8
Data_PATH_09007_1_Final
 10
698016.742
 20
4555957.41
 30
0.0
  0
VERTEX
  8
Data_PATH_09007_1_Final
 10
698054.055
 20
4555916.24
 30
0.0
  0
VERTEX
  8
Data_PATH_09007_1_Final
 10
698071.384
 20
4555894.55
 30
0.0
  0
VERTEX
  8
Data_PATH_09007_1_Final
 10
698087.829
 20
4555872.4
 30
0.0
  0
VERTEX
  8
Data_PATH_09007_1_Final
 10
698149.078
 20
4555783.07
 30
0.0
  0
VERTEX
  8
Data_PATH_09007_1_Final
 10
698174.126
 20
4555750.94
 30
0.0
  0
VERTEX
  8
Data_PATH_09007_1_Final
 10
698202.587
 20
4555720.81
 30
0.0
  0
VERTEX
  8
Data_PATH_09007_1_Final
 10
698223.018
 20
4555701.75
 30
0.0
  0
VERTEX
  8
Data_PATH_09007_1_Final
 10
698329.584
 20
4555616.99
 30
0.0
  0
VERTEX
  8
Data_PATH_09007_1_Final
 10
698365.601
 20
4555583.86
 30
0.0
  0
VERTEX
  8
Data_PATH_09007_1_Final
 10
698400.34
 20
4555550.21
 30
0.0
  0
VERTEX
  8
Data_PATH_09007_1_Final
 10
698435.092
 20
4555515.01
 30
0.0
  0
VERTEX
  8
Data_PATH_09007_1_Final
 10
698469.471
 20
4555477.64
 30
0.0
  0
VERTEX
  8
Data_PATH_09007_1_Final
 10
698502.729
 20
4555438.82
 30
0.0
  0
VERTEX
  8
Data_PATH_09007_1_Final
 10
698565.992
 20
4555360.1
 30
0.0
  0
VERTEX
  8
Data_PATH_09007_1_Final
 10
698598.406
 20
4555321.63
 30
0.0
  0
VERTEX
  8
Data_PATH_09007_1_Final
 10
698633.617
 20
4555283.22
 30
0.0
  0
VERTEX
  8
Data_PATH_09007_1_Final
 10
698708.285
 20
4555204.5
 30
0.0
  0
VERTEX
  8
Data_PATH_09007_1_Final
 10
698779.114
 20
4555126.31
 30
0.0
  0
VERTEX
  8
Data_PATH_09007_1_Final
 10
698817.653
 20
4555088.18
 30
0.0
  0
VERTEX
  8
Data_PATH_09007_1_Final
 10
698860.043
 20
4555051.63
 30
0.0
  0
VERTEX
  8
Data_PATH_09007_1_Final
 10
698950.285
 20
4554984.02
 30
0.0
  0
VERTEX
  8
Data_PATH_09007_1_Final
 10
698993.537
 20
4554950.03
 30
0.0
  0
VERTEX
  8
Data_PATH_09007_1_Final
 10
699034.767
 20
4554913.44
 30
0.0
  0
VERTEX
  8
Data_PATH_09007_1_Final
 10
699073.676
 20
4554875.23
 30
0.0
  0
VERTEX
  8
Data_PATH_09007_1_Final
 10
699110.808
 20
4554836.82
 30
0.0
  0
VERTEX
  8
Data_PATH_09007_1_Final
 10
699186.15
 20
4554756.73
 30
0.0
  0
VERTEX
  8
Data_PATH_09007_1_Final
 10
699222.34
 20
4554715.1
 30
0.0
  0
VERTEX
  8
Data_PATH_09007_1_Final
 10
699290.389
 20
4554631.29
 30
0.0
  0
VERTEX
  8
Data_PATH_09007_1_Final
 10
699326.551
 20
4554588.47
 30
0.0
  0
VERTEX
  8
Data_PATH_09007_1_Final
 10
699365.94
 20
4554545.22
 30
0.0
  0
VERTEX
  8
Data_PATH_09007_1_Final
 10
699448.463
 20
4554458.58
 30
0.0
  0
VERTEX
  8
Data_PATH_09007_1_Final
 10
699564.205
 20
4554330.76
 30
0.0
  0
VERTEX
  8
Data_PATH_09007_1_Final
 10
699689.725
 20
4554197.13
 30
0.0
  0
VERTEX
  8
Data_PATH_09007_1_Final
 10
699761.677
 20
4554116.33
 30
0.0
  0
VERTEX
  8
Data_PATH_09007_1_Final
 10
699797.898
 20
4554077.59
 30
0.0
  0
VERTEX
  8
Data_PATH_09007_1_Final
 10
699837.711
 20
4554037.89
 30
0.0
  0
VERTEX
  8
Data_PATH_09007_1_Final
 10
699959.643
 20
4553924.41
 30
0.0
  0
VERTEX
  8
Data_PATH_09007_1_Final
 10
700033.152
 20
4553852.57
 30
0.0
  0
VERTEX
  8
Data_PATH_09007_1_Final
 10
700112.098
 20
4553771.33
 30
0.0
  0
VERTEX
  8
Data_PATH_09007_1_Final
 10
700184.711
 20
4553692.62
 30
0.0
  0
VERTEX
  8
Data_PATH_09007_1_Final
 10
700240.846
 20
4553628.86
 30
0.0
  0
SEQEND
  8
Data_PATH_09007_1_Final
  0
TEXT
  8
Data_PATH_09007_1_Final
 10
691916.908
 20
4562683.79
 30
0.0
  1
L10030 E
 11
691916.908
 21
4562683.79
 31
0.0
 40
59.9999929
 41
1
 50
-46.337
 51
0
 71
0
 62
7
  7
ARIAL
 72
2
 73
0
  0
TEXT
  8
Data_PATH_09007_1_Final
 10
700571.882
 20
4553615.05
 30
0.0
  1
L10030 E
 11
700571.882
 21
4553615.05
 31
0.0
 40
59.9999929
 41
1
 50
-46.337
 51
0
 71
0
 62
7
  7
ARIAL
  0
POLYLINE
  8
Data_PATH_09007_1_Final
 66
1
 40
3.59999957
 41
3.59999957
 62
7
 10
700560.444
 20
4553670.49
 30
0.0
  0
VERTEX
  8
Data_PATH_09007_1_Final
 10
700560.444
 20
4553670.49
 30
0.0
  0
VERTEX
  8
Data_PATH_09007_1_Final
 10
700482.815
 20
4553761.94
 30
0.0
  0
VERTEX
  8
Data_PATH_09007_1_Final
 10
700403.16
 20
4553849.03
 30
0.0
  0
VERTEX
  8
Data_PATH_09007_1_Final
 10
700363.266
 20
4553893.63
 30
0.0
  0
VERTEX
  8
Data_PATH_09007_1_Final
 10
700323.846
 20
4553939.68
 30
0.0
  0
VERTEX
  8
Data_PATH_09007_1_Final
 10
700283.394
 20
4553987.12
 30
0.0
  0
VERTEX
  8
Data_PATH_09007_1_Final
 10
700241.986
 20
4554034.19
 30
0.0
  0
VERTEX
  8
Data_PATH_09007_1_Final
 10
700156.544
 20
4554126.11
 30
0.0
  0
VERTEX
  8
Data_PATH_09007_1_Final
 10
700072.811
 20
4554219.75
 30
0.0
  0
VERTEX
  8
Data_PATH_09007_1_Final
 10
700030.906
 20
4554266.03
 30
0.0
  0
VERTEX
  8
Data_PATH_09007_1_Final
 10
699985.834
 20
4554310.93
 30
0.0
  0
VERTEX
  8
Data_PATH_09007_1_Final
 10
699937.651
 20
4554354.16
 30
0.0
  0
VERTEX
  8
Data_PATH_09007_1_Final
 10
699886.355
 20
4554397.01
 30
0.0
  0
VERTEX
  8
Data_PATH_09007_1_Final
 10
699835.466
 20
4554441.08
 30
0.0
  0
VERTEX
  8
Data_PATH_09007_1_Final
 10
699811.182
 20
4554463.91
 30
0.0
  0
VERTEX
  8
Data_PATH_09007_1_Final
 10
699788.582
 20
4554487.28
 30
0.0
  0
VERTEX
  8
Data_PATH_09007_1_Final
 10
699746.018
 20
4554534.66
 30
0.0
  0
VERTEX
  8
Data_PATH_09007_1_Final
 10
699704.38
 20
4554582.72
 30
0.0
  0
VERTEX
  8
Data_PATH_09007_1_Final
 10
699660.682
 20
4554630.42
 30
0.0
  0
VERTEX
  8
Data_PATH_09007_1_Final
 10
699571.56
 20
4554720.41
 30
0.0
  0
VERTEX
  8
Data_PATH_09007_1_Final
 10
699530.504
 20
4554763.68
 30
0.0
  0
VERTEX
  8
Data_PATH_09007_1_Final
 10
699492.005
 20
4554808.03
 30
0.0
  0
VERTEX
  8
Data_PATH_09007_1_Final
 10
699417.731
 20
4554897.55
 30
0.0
  0
VERTEX
  8
Data_PATH_09007_1_Final
 10
699377.99
 20
4554941.54
 30
0.0
  0
VERTEX
  8
Data_PATH_09007_1_Final
 10
699336.541
 20
4554984.36
 30
0.0
  0
VERTEX
  8
Data_PATH_09007_1_Final
 10
699252.906
 20
4555069.35
 30
0.0
  0
VERTEX
  8
Data_PATH_09007_1_Final
 10
699176.097
 20
4555151.39
 30
0.0
  0
VERTEX
  8
Data_PATH_09007_1_Final
 10
699136.321
 20
4555192.25
 30
0.0
  0
VERTEX
  8
Data_PATH_09007_1_Final
 10
699093.7
 20
4555234.08
 30
0.0
  0
VERTEX
  8
Data_PATH_09007_1_Final
 10
699049.98
 20
4555276.25
 30
0.0
  0
VERTEX
  8
Data_PATH_09007_1_Final
 10
699008.242
 20
4555318.11
 30
0.0
  0
VERTEX
  8
Data_PATH_09007_1_Final
 10
698892.228
 20
4555444.44
 30
0.0
  0
VERTEX
  8
Data_PATH_09007_1_Final
 10
698848.977
 20
4555488.9
 30
0.0
  0
VERTEX
  8
Data_PATH_09007_1_Final
 10
698759.215
 20
4555578.16
 30
0.0
  0
VERTEX
  8
Data_PATH_09007_1_Final
 10
698678.086
 20
4555661.85
 30
0.0
  0
VERTEX
  8
Data_PATH_09007_1_Final
 10
698595.046
 20
4555750.22
 30
0.0
  0
VERTEX
  8
Data_PATH_09007_1_Final
 10
698465.971
 20
4555880.52
 30
0.0
  0
VERTEX
  8
Data_PATH_09007_1_Final
 10
698425.695
 20
4555922.46
 30
0.0
  0
VERTEX
  8
Data_PATH_09007_1_Final
 10
698386.178
 20
4555965.88
 30
0.0
  0
VERTEX
  8
Data_PATH_09007_1_Final
 10
698309.216
 20
4556054.4
 30
0.0
  0
VERTEX
  8
Data_PATH_09007_1_Final
 10
698270.307
 20
4556095.18
 30
0.0
  0
VERTEX
  8
Data_PATH_09007_1_Final
 10
698186.131
 20
4556172.75
 30
0.0
  0
VERTEX
  8
Data_PATH_09007_1_Final
 10
698141.802
 20
4556215.33
 30
0.0
  0
VERTEX
  8
Data_PATH_09007_1_Final
 10
698098.725
 20
4556260.13
 30
0.0
  0
VERTEX
  8
Data_PATH_09007_1_Final
 10
698018.088
 20
4556348.65
 30
0.0
  0
VERTEX
  8
Data_PATH_09007_1_Final
 10
697855.226
 20
4556520.94
 30
0.0
  0
VERTEX
  8
Data_PATH_09007_1_Final
 10
697777.858
 20
4556605.73
 30
0.0
  0
VERTEX
  8
Data_PATH_09007_1_Final
 10
697737.997
 20
4556646.98
 30
0.0
  0
VERTEX
  8
Data_PATH_09007_1_Final
 10
697612.789
 20
4556771.51
 30
0.0
  0
VERTEX
  8
Data_PATH_09007_1_Final
 10
697490.493
 20
4556897.98
 30
0.0
  0
VERTEX
  8
Data_PATH_09007_1_Final
 10
697359.343
 20
4557026.31
 30
0.0
  0
VERTEX
  8
Data_PATH_09007_1_Final
 10
697234.587
 20
4557151.99
 30
0.0
  0
VERTEX
  8
Data_PATH_09007_1_Final
 10
697150.732
 20
4557231.27
 30
0.0
  0
VERTEX
  8
Data_PATH_09007_1_Final
 10
697107.47
 20
4557273.33
 30
0.0
  0
VERTEX
  8
Data_PATH_09007_1_Final
 10
697067.142
 20
4557316.41
 30
0.0
  0
VERTEX
  8
Data_PATH_09007_1_Final
 10
696995.155
 20
4557400.82
 30
0.0
  0
VERTEX
  8
Data_PATH_09007_1_Final
 10
696957.222
 20
4557442.41
 30
0.0
  0
VERTEX
  8
Data_PATH_09007_1_Final
 10
696871.822
 20
4557527.06
 30
0.0
  0
VERTEX
  8
Data_PATH_09007_1_Final
 10
696829.811
 20
4557570.05
 30
0.0
  0
VERTEX
  8
Data_PATH_09007_1_Final
 10
696790.737
 20
4557613.77
 30
0.0
  0
VERTEX
  8
Data_PATH_09007_1_Final
 10
696713.688
 20
4557704.12
 30
0.0
  0
VERTEX
  8
Data_PATH_09007_1_Final
 10
696672.786
 20
4557748.4
 30
0.0
  0
VERTEX
  8
Data_PATH_09007_1_Final
 10
696590.839
 20
4557833.44
 30
0.0
  0
VERTEX
  8
Data_PATH_09007_1_Final
 10
696552.421
 20
4557876.63
 30
0.0
  0
VERTEX
  8
Data_PATH_09007_1_Final
 10
696480.405
 20
4557965.34
 30
0.0
  0
VERTEX
  8
Data_PATH_09007_1_Final
 10
696443.421
 20
4558009.32
 30
0.0
  0
VERTEX
  8
Data_PATH_09007_1_Final
 10
696403.845
 20
4558051.88
 30
0.0
  0
VERTEX
  8
Data_PATH_09007_1_Final
 10
696322.185
 20
4558134.53
 30
0.0
  0
VERTEX
  8
Data_PATH_09007_1_Final
 10
696202.517
 20
4558265.06
 30
0.0
  0
VERTEX
  8
Data_PATH_09007_1_Final
 10
696160.974
 20
4558308.25
 30
0.0
  0
VERTEX
  8
Data_PATH_09007_1_Final
 10
696077.827
 20
4558390.64
 30
0.0
  0
VERTEX
  8
Data_PATH_09007_1_Final
 10
695915.779
 20
4558557.75
 30
0.0
  0
VERTEX
  8
Data_PATH_09007_1_Final
 10
695791.151
 20
4558676.69
 30
0.0
  0
VERTEX
  8
Data_PATH_09007_1_Final
 10
695749.852
 20
4558717.64
 30
0.0
  0
VERTEX
  8
Data_PATH_09007_1_Final
 10
695670.474
 20
4558800.28
 30
0.0
  0
VERTEX
  8
Data_PATH_09007_1_Final
 10
695630.11
 20
4558840.61
 30
0.0
  0
VERTEX
  8
Data_PATH_09007_1_Final
 10
695587.933
 20
4558879.46
 30
0.0
  0
VERTEX
  8
Data_PATH_09007_1_Final
 10
695502.81
 20
4558954.01
 30
0.0
  0
VERTEX
  8
Data_PATH_09007_1_Final
 10
695421.639
 20
4559029.2
 30
0.0
  0
VERTEX
  8
Data_PATH_09007_1_Final
 10
695338.389
 20
4559106.35
 30
0.0
  0
VERTEX
  8
Data_PATH_09007_1_Final
 10
695295.952
 20
4559144.41
 30
0.0
  0
VERTEX
  8
Data_PATH_09007_1_Final
 10
695254.615
 20
4559183.67
 30
0.0
  0
VERTEX
  8
Data_PATH_09007_1_Final
 10
695234.909
 20
4559204.08
 30
0.0
  0
VERTEX
  8
Data_PATH_09007_1_Final
 10
695216.058
 20
4559225.19
 30
0.0
  0
VERTEX
  8
Data_PATH_09007_1_Final
 10
695198.391
 20
4559247.48
 30
0.0
  0
VERTEX
  8
Data_PATH_09007_1_Final
 10
695181.567
 20
4559270.3
 30
0.0
  0
VERTEX
  8
Data_PATH_09007_1_Final
 10
695133.916
 20
4559338.97
 30
0.0
  0
VERTEX
  8
Data_PATH_09007_1_Final
 10
695117.43
 20
4559361.03
 30
0.0
  0
VERTEX
  8
Data_PATH_09007_1_Final
 10
695099.883
 20
4559382.46
 30
0.0
  0
VERTEX
  8
Data_PATH_09007_1_Final
 10
695081.408
 20
4559403.19
 30
0.0
  0
VERTEX
  8
Data_PATH_09007_1_Final
 10
695062.102
 20
4559423.25
 30
0.0
  0
VERTEX
  8
Data_PATH_09007_1_Final
 10
695001.321
 20
4559480.66
 30
0.0
  0
VERTEX
  8
Data_PATH_09007_1_Final
 10
694962.495
 20
4559519.32
 30
0.0
  0
VERTEX
  8
Data_PATH_09007_1_Final
 10
694944.193
 20
4559539.25
 30
0.0
  0
VERTEX
  8
Data_PATH_09007_1_Final
 10
694892.204
 20
4559602.23
 30
0.0
  0
VERTEX
  8
Data_PATH_09007_1_Final
 10
694856.377
 20
4559645.98
 30
0.0
  0
VERTEX
  8
Data_PATH_09007_1_Final
 10
694818.615
 20
4559688.16
 30
0.0
  0
VERTEX
  8
Data_PATH_09007_1_Final
 10
694779.838
 20
4559727.67
 30
0.0
  0
VERTEX
  8
Data_PATH_09007_1_Final
 10
694740.985
 20
4559765.65
 30
0.0
  0
VERTEX
  8
Data_PATH_09007_1_Final
 10
694701.968
 20
4559804.39
 30
0.0
  0
VERTEX
  8
Data_PATH_09007_1_Final
 10
694662.888
 20
4559844.69
 30
0.0
  0
VERTEX
  8
Data_PATH_09007_1_Final
 10
694585.186
 20
4559928.18
 30
0.0
  0
VERTEX
  8
Data_PATH_09007_1_Final
 10
694547.265
 20
4559967.58
 30
0.0
  0
VERTEX
  8
Data_PATH_09007_1_Final
 10
694508.57
 20
4560005.16
 30
0.0
  0
VERTEX
  8
Data_PATH_09007_1_Final
 10
694427.068
 20
4560081.93
 30
0.0
  0
VERTEX
  8
Data_PATH_09007_1_Final
 10
694386.576
 20
4560122.46
 30
0.0
  0
VERTEX
  8
Data_PATH_09007_1_Final
 10
694346.468
 20
4560164.36
 30
0.0
  0
VERTEX
  8
Data_PATH_09007_1_Final
 10
694227.891
 20
4560287.41
 30
0.0
  0
VERTEX
  8
Data_PATH_09007_1_Final
 10
694191.779
 20
4560327.47
 30
0.0
  0
VERTEX
  8
Data_PATH_09007_1_Final
 10
694157.336
 20
4560369.23
 30
0.0
  0
VERTEX
  8
Data_PATH_09007_1_Final
 10
694054.808
 20
4560501.62
 30
0.0
  0
VERTEX
  8
Data_PATH_09007_1_Final
 10
693984.796
 20
4560589.21
 30
0.0
  0
VERTEX
  8
Data_PATH_09007_1_Final
 10
693916.841
 20
4560676.43
 30
0.0
  0
VERTEX
  8
Data_PATH_09007_1_Final
 10
693881.693
 20
4560718.73
 30
0.0
  0
VERTEX
  8
Data_PATH_09007_1_Final
 10
693844.118
 20
4560759.12
 30
0.0
  0
VERTEX
  8
Data_PATH_09007_1_Final
 10
693803.826
 20
4560797.42
 30
0.0
  0
VERTEX
  8
Data_PATH_09007_1_Final
 10
693763.183
 20
4560834.29
 30
0.0
  0
VERTEX
  8
Data_PATH_09007_1_Final
 10
693641.902
 20
4560946.25
 30
0.0
  0
VERTEX
  8
Data_PATH_09007_1_Final
 10
693597.895
 20
4560983.39
 30
0.0
  0
VERTEX
  8
Data_PATH_09007_1_Final
 10
693507.105
 20
4561053.15
 30
0.0
  0
VERTEX
  8
Data_PATH_09007_1_Final
 10
693460.9
 20
4561090.04
 30
0.0
  0
VERTEX
  8
Data_PATH_09007_1_Final
 10
693438.442
 20
4561109.55
 30
0.0
  0
VERTEX
  8
Data_PATH_09007_1_Final
 10
693396.054
 20
4561150.19
 30
0.0
  0
VERTEX
  8
Data_PATH_09007_1_Final
 10
693376.866
 20
4561170.76
 30
0.0
  0
VERTEX
  8
Data_PATH_09007_1_Final
 10
693304.474
 20
4561252.07
 30
0.0
  0
VERTEX
  8
Data_PATH_09007_1_Final
 10
693266.308
 20
4561290.48
 30
0.0
  0
VERTEX
  8
Data_PATH_09007_1_Final
 10
693187.749
 20
4561364.67
 30
0.0
  0
VERTEX
  8
Data_PATH_09007_1_Final
 10
693150.162
 20
4561403.75
 30
0.0
  0
VERTEX
  8
Data_PATH_09007_1_Final
 10
693114.646
 20
4561444.41
 30
0.0
  0
VERTEX
  8
Data_PATH_09007_1_Final
 10
693079.936
 20
4561485.5
 30
0.0
  0
VERTEX
  8
Data_PATH_09007_1_Final
 10
693044.14
 20
4561525.4
 30
0.0
  0
VERTEX
  8
Data_PATH_09007_1_Final
 10
693005.82
 20
4561563.99
 30
0.0
  0
VERTEX
  8
Data_PATH_09007_1_Final
 10
692966.205
 20
4561602.09
 30
0.0
  0
VERTEX
  8
Data_PATH_09007_1_Final
 10
692927.287
 20
4561641.2
 30
0.0
  0
VERTEX
  8
Data_PATH_09007_1_Final
 10
692890.372
 20
4561682.85
 30
0.0
  0
VERTEX
  8
Data_PATH_09007_1_Final
 10
692784.659
 20
4561813.11
 30
0.0
  0
VERTEX
  8
Data_PATH_09007_1_Final
 10
692673.054
 20
4561938.14
 30
0.0
  0
VERTEX
  8
Data_PATH_09007_1_Final
 10
692637.572
 20
4561978.51
 30
0.0
  0
VERTEX
  8
Data_PATH_09007_1_Final
 10
692601.582
 20
4562017.71
 30
0.0
  0
VERTEX
  8
Data_PATH_09007_1_Final
 10
692563.613
 20
4562056.57
 30
0.0
  0
VERTEX
  8
Data_PATH_09007_1_Final
 10
692523.594
 20
4562095.97
 30
0.0
  0
VERTEX
  8
Data_PATH_09007_1_Final
 10
692444.1
 20
4562175.19
 30
0.0
  0
VERTEX
  8
Data_PATH_09007_1_Final
 10
692364.2
 20
4562258.09
 30
0.0
  0
VERTEX
  8
Data_PATH_09007_1_Final
 10
692243.905
 20
4562378.5
 30
0.0
  0
VERTEX
  8
Data_PATH_09007_1_Final
 10
692204.284
 20
4562420.62
 30
0.0
  0
VERTEX
  8
Data_PATH_09007_1_Final
 10
692127.091
 20
4562507.7
 30
0.0
  0
VERTEX
  8
Data_PATH_09007_1_Final
 10
692088.588
 20
4562549.93
 30
0.0
  0
VERTEX
  8
Data_PATH_09007_1_Final
 10
691971.75
 20
4562669.78
 30
0.0
  0
SEQEND
  8
Data_PATH_09007_1_Final
  0
TEXT
  8
Data_PATH_09007_1_Final
 10
692309.49
 20
4562686.07
 30
0.0
  1
L10040 E
 11
692309.49
 21
4562686.07
 31
0.0
 40
59.9999929
 41
1
 50
-46.262
 51
0
 71
0
 62
7
  7
ARIAL
 72
2
 73
0
  0
TEXT
  8
Data_PATH_09007_1_Final
 10
700889.714
 20
4553719.32
 30
0.0
  1
L10040 E
 11
700889.714
 21
4553719.32
 31
0.0
 40
59.9999929
 41
1
 50
-46.262
 51
0
 71
0
 62
7
  7
ARIAL
  0
POLYLINE
  8
Data_PATH_09007_1_Final
 66
1
 40
3.59999957
 41
3.59999957
 62
7
 10
692364.351
 20
4562672.13
 30
0.0
  0
VERTEX
  8
Data_PATH_09007_1_Final
 10
692364.351
 20
4562672.13
 30
0.0
  0
VERTEX
  8
Data_PATH_09007_1_Final
 10
692400.005
 20
4562633.58
 30
0.0
  0
VERTEX
  8
Data_PATH_09007_1_Final
 10
692435.818
 20
4562590.94
 30
0.0
  0
VERTEX
  8
Data_PATH_09007_1_Final
 10
692470.388
 20
4562548.33
 30
0.0
  0
VERTEX
  8
Data_PATH_09007_1_Final
 10
692503.864
 20
4562509.47
 30
0.0
  0
VERTEX
  8
Data_PATH_09007_1_Final
 10
692538.341
 20
4562473.72
 30
0.0
  0
VERTEX
  8
Data_PATH_09007_1_Final
 10
692574.765
 20
4562439.2
 30
0.0
  0
VERTEX
  8
Data_PATH_09007_1_Final
 10
692685.939
 20
4562332.6
 30
0.0
  0
VERTEX
  8
Data_PATH_09007_1_Final
 10
692722.832
 20
4562299.25
 30
0.0
  0
VERTEX
  8
Data_PATH_09007_1_Final
 10
692761.829
 20
4562268.82
 30
0.0
  0
VERTEX
  8
Data_PATH_09007_1_Final
 10
692803.488
 20
4562240.8
 30
0.0
  0
VERTEX
  8
Data_PATH_09007_1_Final
 10
692847.83
 20
4562215.12
 30
0.0
  0
VERTEX
  8
Data_PATH_09007_1_Final
 10
692894.2
 20
4562191.12
 30
0.0
  0
VERTEX
  8
Data_PATH_09007_1_Final
 10
692941.555
 20
4562168.32
 30
0.0
  0
VERTEX
  8
Data_PATH_09007_1_Final
 10
692989.483
 20
4562146.71
 30
0.0
  0
VERTEX
  8
Data_PATH_09007_1_Final
 10
693038.663
 20
4562125.91
 30
0.0
  0
VERTEX
  8
Data_PATH_09007_1_Final
 10
693197.719
 20
4562064.01
 30
0.0
  0
VERTEX
  8
Data_PATH_09007_1_Final
 10
693224.559
 20
4562052.01
 30
0.0
  0
VERTEX
  8
Data_PATH_09007_1_Final
 10
693250.542
 20
4562038.84
 30
0.0
  0
VERTEX
  8
Data_PATH_09007_1_Final
 10
693263.391
 20
4562032.05
 30
0.0
  0
VERTEX
  8
Data_PATH_09007_1_Final
 10
693275.355
 20
4562024.47
 30
0.0
  0
VERTEX
  8
Data_PATH_09007_1_Final
 10
693298.702
 20
4562008.93
 30
0.0
  0
VERTEX
  8
Data_PATH_09007_1_Final
 10
693320.306
 20
4561992.28
 30
0.0
  0
VERTEX
  8
Data_PATH_09007_1_Final
 10
693339.503
 20
4561974
 30
0.0
  0
VERTEX
  8
Data_PATH_09007_1_Final
 10
693356.862
 20
4561954.37
 30
0.0
  0
VERTEX
  8
Data_PATH_09007_1_Final
 10
693365.236
 20
4561944.32
 30
0.0
  0
VERTEX
  8
Data_PATH_09007_1_Final
 10
693372.538
 20
4561933.75
 30
0.0
  0
VERTEX
  8
Data_PATH_09007_1_Final
 10
693386.812
 20
4561912.48
 30
0.0
  0
VERTEX
  8
Data_PATH_09007_1_Final
 10
693400.1
 20
4561890.83
 30
0.0
  0
VERTEX
  8
Data_PATH_09007_1_Final
 10
693450.359
 20
4561804.64
 30
0.0
  0
VERTEX
  8
Data_PATH_09007_1_Final
 10
693502.065
 20
4561723.03
 30
0.0
  0
VERTEX
  8
Data_PATH_09007_1_Final
 10
693555.813
 20
4561640.76
 30
0.0
  0
VERTEX
  8
Data_PATH_09007_1_Final
 10
693584.678
 20
4561600.85
 30
0.0
  0
VERTEX
  8
Data_PATH_09007_1_Final
 10
693616.287
 20
4561562.63
 30
0.0
  0
VERTEX
  8
Data_PATH_09007_1_Final
 10
693649.076
 20
4561524.54
 30
0.0
  0
VERTEX
  8
Data_PATH_09007_1_Final
 10
693680.096
 20
4561484.93
 30
0.0
  0
VERTEX
  8
Data_PATH_09007_1_Final
 10
693693.754
 20
4561464.16
 30
0.0
  0
VERTEX
  8
Data_PATH_09007_1_Final
 10
693706.411
 20
4561442.97
 30
0.0
  0
VERTEX
  8
Data_PATH_09007_1_Final
 10
693753.92
 20
4561356.76
 30
0.0
  0
VERTEX
  8
Data_PATH_09007_1_Final
 10
693780.905
 20
4561313.42
 30
0.0
  0
VERTEX
  8
Data_PATH_09007_1_Final
 10
693809.418
 20
4561269.84
 30
0.0
  0
VERTEX
  8
Data_PATH_09007_1_Final
 10
693836.689
 20
4561226
 30
0.0
  0
VERTEX
  8
Data_PATH_09007_1_Final
 10
693862.555
 20
4561181.77
 30
0.0
  0
VERTEX
  8
Data_PATH_09007_1_Final
 10
693889.513
 20
4561137.56
 30
0.0
  0
VERTEX
  8
Data_PATH_09007_1_Final
 10
693919.851
 20
4561094.82
 30
0.0
  0
VERTEX
  8
Data_PATH_09007_1_Final
 10
693953.985
 20
4561053.36
 30
0.0
  0
VERTEX
  8
Data_PATH_09007_1_Final
 10
693990.991
 20
4561012.92
 30
0.0
  0
VERTEX
  8
Data_PATH_09007_1_Final
 10
694028.561
 20
4560973.62
 30
0.0
  0
VERTEX
  8
Data_PATH_09007_1_Final
 10
694065.97
 20
4560935.86
 30
0.0
  0
VERTEX
  8
Data_PATH_09007_1_Final
 10
694103.207
 20
4560898.81
 30
0.0
  0
VERTEX
  8
Data_PATH_09007_1_Final
 10
694140.145
 20
4560859.71
 30
0.0
  0
VERTEX
  8
Data_PATH_09007_1_Final
 10
694157.724
 20
4560838.85
 30
0.0
  0
VERTEX
  8
Data_PATH_09007_1_Final
 10
694174.378
 20
4560817.53
 30
0.0
  0
VERTEX
  8
Data_PATH_09007_1_Final
 10
694205.055
 20
4560773.91
 30
0.0
  0
VERTEX
  8
Data_PATH_09007_1_Final
 10
694232.755
 20
4560729.94
 30
0.0
  0
VERTEX
  8
Data_PATH_09007_1_Final
 10
694260.42
 20
4560687.32
 30
0.0
  0
VERTEX
  8
Data_PATH_09007_1_Final
 10
694275.298
 20
4560666.59
 30
0.0
  0
VERTEX
  8
Data_PATH_09007_1_Final
 10
694291.317
 20
4560646.21
 30
0.0
  0
VERTEX
  8
Data_PATH_09007_1_Final
 10
694309.129
 20
4560626.12
 30
0.0
  0
VERTEX
  8
Data_PATH_09007_1_Final
 10
694328.166
 20
4560606.15
 30
0.0
  0
VERTEX
  8
Data_PATH_09007_1_Final
 10
694368.108
 20
4560566.84
 30
0.0
  0
VERTEX
  8
Data_PATH_09007_1_Final
 10
694407.223
 20
4560528.27
 30
0.0
  0
VERTEX
  8
Data_PATH_09007_1_Final
 10
694444.077
 20
4560488.92
 30
0.0
  0
VERTEX
  8
Data_PATH_09007_1_Final
 10
694479.847
 20
4560449.13
 30
0.0
  0
VERTEX
  8
Data_PATH_09007_1_Final
 10
694517.174
 20
4560410.21
 30
0.0
  0
VERTEX
  8
Data_PATH_09007_1_Final
 10
694597.535
 20
4560334.18
 30
0.0
  0
VERTEX
  8
Data_PATH_09007_1_Final
 10
694625.528
 20
4560303.94
 30
0.0
  0
VERTEX
  8
Data_PATH_09007_1_Final
 10
694649.474
 20
4560272.31
 30
0.0
  0
VERTEX
  8
Data_PATH_09007_1_Final
 10
694663.78
 20
4560250.78
 30
0.0
  0
VERTEX
  8
Data_PATH_09007_1_Final
 10
694715.628
 20
4560159.17
 30
0.0
  0
VERTEX
  8
Data_PATH_09007_1_Final
 10
694730.393
 20
4560136.18
 30
0.0
  0
VERTEX
  8
Data_PATH_09007_1_Final
 10
694746.83
 20
4560113.97
 30
0.0
  0
VERTEX
  8
Data_PATH_09007_1_Final
 10
694763.918
 20
4560092.64
 30
0.0
  0
VERTEX
  8
Data_PATH_09007_1_Final
 10
694799.574
 20
4560051.89
 30
0.0
  0
VERTEX
  8
Data_PATH_09007_1_Final
 10
694912.621
 20
4559929.28
 30
0.0
  0
VERTEX
  8
Data_PATH_09007_1_Final
 10
694953.898
 20
4559889.41
 30
0.0
  0
VERTEX
  8
Data_PATH_09007_1_Final
 10
694975.188
 20
4559870.78
 30
0.0
  0
VERTEX
  8
Data_PATH_09007_1_Final
 10
694996.817
 20
4559853.17
 30
0.0
  0
VERTEX
  8
Data_PATH_09007_1_Final
 10
695084.494
 20
4559789.63
 30
0.0
  0
VERTEX
  8
Data_PATH_09007_1_Final
 10
695126.855
 20
4559758.42
 30
0.0
  0
VERTEX
  8
Data_PATH_09007_1_Final
 10
695169.189
 20
4559723.7
 30
0.0
  0
VERTEX
  8
Data_PATH_09007_1_Final
 10
695211.63
 20
4559685.44
 30
0.0
  0
VERTEX
  8
Data_PATH_09007_1_Final
 10
695251.506
 20
4559645.6
 30
0.0
  0
VERTEX
  8
Data_PATH_09007_1_Final
 10
695321.014
 20
4559570.3
 30
0.0
  0
VERTEX
  8
Data_PATH_09007_1_Final
 10
695357.711
 20
4559532.43
 30
0.0
  0
VERTEX
  8
Data_PATH_09007_1_Final
 10
695397.561
 20
4559492.95
 30
0.0
  0
VERTEX
  8
Data_PATH_09007_1_Final
 10
695478.99
 20
4559414.5
 30
0.0
  0
VERTEX
  8
Data_PATH_09007_1_Final
 10
695556.179
 20
4559341.26
 30
0.0
  0
VERTEX
  8
Data_PATH_09007_1_Final
 10
695638.889
 20
4559267.81
 30
0.0
  0
VERTEX
  8
Data_PATH_09007_1_Final
 10
695679.771
 20
4559229.19
 30
0.0
  0
VERTEX
  8
Data_PATH_09007_1_Final
 10
695716.99
 20
4559190.75
 30
0.0
  0
VERTEX
  8
Data_PATH_09007_1_Final
 10
695750.482
 20
4559152.63
 30
0.0
  0
VERTEX
  8
Data_PATH_09007_1_Final
 10
695783.587
 20
4559112.88
 30
0.0
  0
VERTEX
  8
Data_PATH_09007_1_Final
 10
695817.708
 20
4559072.79
 30
0.0
  0
VERTEX
  8
Data_PATH_09007_1_Final
 10
695852.784
 20
4559033.37
 30
0.0
  0
VERTEX
  8
Data_PATH_09007_1_Final
 10
695887.338
 20
4558994.58
 30
0.0
  0
VERTEX
  8
Data_PATH_09007_1_Final
 10
695919.522
 20
4558956.77
 30
0.0
  0
VERTEX
  8
Data_PATH_09007_1_Final
 10
695982.356
 20
4558877.93
 30
0.0
  0
VERTEX
  8
Data_PATH_09007_1_Final
 10
696016.139
 20
4558838.37
 30
0.0
  0
VERTEX
  8
Data_PATH_09007_1_Final
 10
696051.277
 20
4558800.8
 30
0.0
  0
VERTEX
  8
Data_PATH_09007_1_Final
 10
696122.922
 20
4558729.58
 30
0.0
  0
VERTEX
  8
Data_PATH_09007_1_Final
 10
696157.521
 20
4558692.93
 30
0.0
  0
VERTEX
  8
Data_PATH_09007_1_Final
 10
696191.173
 20
4558655.22
 30
0.0
  0
VERTEX
  8
Data_PATH_09007_1_Final
 10
696224.895
 20
4558617.02
 30
0.0
  0
VERTEX
  8
Data_PATH_09007_1_Final
 10
696259.243
 20
4558580.14
 30
0.0
  0
VERTEX
  8
Data_PATH_09007_1_Final
 10
696294.23
 20
4558545.16
 30
0.0
  0
VERTEX
  8
Data_PATH_09007_1_Final
 10
696330.812
 20
4558510.54
 30
0.0
  0
VERTEX
  8
Data_PATH_09007_1_Final
 10
696368.301
 20
4558474.39
 30
0.0
  0
VERTEX
  8
Data_PATH_09007_1_Final
 10
696404.774
 20
4558437.48
 30
0.0
  0
VERTEX
  8
Data_PATH_09007_1_Final
 10
696473.66
 20
4558365.52
 30
0.0
  0
VERTEX
  8
Data_PATH_09007_1_Final
 10
696509.571
 20
4558330.02
 30
0.0
  0
VERTEX
  8
Data_PATH_09007_1_Final
 10
696584.64
 20
4558258.99
 30
0.0
  0
VERTEX
  8
Data_PATH_09007_1_Final
 10
696622.956
 20
4558220.65
 30
0.0
  0
VERTEX
  8
Data_PATH_09007_1_Final
 10
696697.133
 20
4558144.02
 30
0.0
  0
VERTEX
  8
Data_PATH_09007_1_Final
 10
696847.832
 20
4557994.38
 30
0.0
  0
VERTEX
  8
Data_PATH_09007_1_Final
 10
697126.732
 20
4557702.75
 30
0.0
  0
VERTEX
  8
Data_PATH_09007_1_Final
 10
697236.456
 20
4557593.74
 30
0.0
  0
VERTEX
  8
Data_PATH_09007_1_Final
 10
697273.417
 20
4557555.03
 30
0.0
  0
VERTEX
  8
Data_PATH_09007_1_Final
 10
697342.847
 20
4557479.89
 30
0.0
  0
VERTEX
  8
Data_PATH_09007_1_Final
 10
697412.257
 20
4557406.89
 30
0.0
  0
VERTEX
  8
Data_PATH_09007_1_Final
 10
697448.67
 20
4557367.37
 30
0.0
  0
VERTEX
  8
Data_PATH_09007_1_Final
 10
697553.86
 20
4557245.21
 30
0.0
  0
VERTEX
  8
Data_PATH_09007_1_Final
 10
697590.083
 20
4557206.41
 30
0.0
  0
VERTEX
  8
Data_PATH_09007_1_Final
 10
697668.687
 20
4557128.11
 30
0.0
  0
VERTEX
  8
Data_PATH_09007_1_Final
 10
697708.492
 20
4557087.26
 30
0.0
  0
VERTEX
  8
Data_PATH_09007_1_Final
 10
697822.426
 20
4556965.97
 30
0.0
  0
VERTEX
  8
Data_PATH_09007_1_Final
 10
697864.007
 20
4556924.77
 30
0.0
  0
VERTEX
  8
Data_PATH_09007_1_Final
 10
697996.196
 20
4556806.21
 30
0.0
  0
VERTEX
  8
Data_PATH_09007_1_Final
 10
698037.628
 20
4556766.17
 30
0.0
  0
VERTEX
  8
Data_PATH_09007_1_Final
 10
698077.582
 20
4556724.45
 30
0.0
  0
VERTEX
  8
Data_PATH_09007_1_Final
 10
698156.704
 20
4556636.95
 30
0.0
  0
VERTEX
  8
Data_PATH_09007_1_Final
 10
698194.943
 20
4556592.74
 30
0.0
  0
VERTEX
  8
Data_PATH_09007_1_Final
 10
698264.248
 20
4556506.69
 30
0.0
  0
VERTEX
  8
Data_PATH_09007_1_Final
 10
698299.845
 20
4556464.53
 30
0.0
  0
VERTEX
  8
Data_PATH_09007_1_Final
 10
698338.953
 20
4556423.48
 30
0.0
  0
VERTEX
  8
Data_PATH_09007_1_Final
 10
698381.296
 20
4556384.26
 30
0.0
  0
VERTEX
  8
Data_PATH_09007_1_Final
 10
698466.004
 20
4556309.57
 30
0.0
  0
VERTEX
  8
Data_PATH_09007_1_Final
 10
698505.37
 20
4556271.9
 30
0.0
  0
VERTEX
  8
Data_PATH_09007_1_Final
 10
698704.497
 20
4556069.8
 30
0.0
  0
VERTEX
  8
Data_PATH_09007_1_Final
 10
698741.521
 20
4556029.97
 30
0.0
  0
VERTEX
  8
Data_PATH_09007_1_Final
 10
698776.115
 20
4555989.34
 30
0.0
  0
VERTEX
  8
Data_PATH_09007_1_Final
 10
698846.466
 20
4555902.28
 30
0.0
  0
VERTEX
  8
Data_PATH_09007_1_Final
 10
698884.135
 20
4555859.69
 30
0.0
  0
VERTEX
  8
Data_PATH_09007_1_Final
 10
698960.466
 20
4555778.91
 30
0.0
  0
VERTEX
  8
Data_PATH_09007_1_Final
 10
699074.081
 20
4555654.72
 30
0.0
  0
VERTEX
  8
Data_PATH_09007_1_Final
 10
699112.578
 20
4555614.26
 30
0.0
  0
VERTEX
  8
Data_PATH_09007_1_Final
 10
699233.272
 20
4555492.86
 30
0.0
  0
VERTEX
  8
Data_PATH_09007_1_Final
 10
699344.001
 20
4555374.2
 30
0.0
  0
VERTEX
  8
Data_PATH_09007_1_Final
 10
699496.824
 20
4555212.54
 30
0.0
  0
VERTEX
  8
Data_PATH_09007_1_Final
 10
699606.314
 20
4555091.25
 30
0.0
  0
VERTEX
  8
Data_PATH_09007_1_Final
 10
699644.266
 20
4555051.56
 30
0.0
  0
VERTEX
  8
Data_PATH_09007_1_Final
 10
699726.591
 20
4554968.63
 30
0.0
  0
VERTEX
  8
Data_PATH_09007_1_Final
 10
699882.281
 20
4554808.08
 30
0.0
  0
VERTEX
  8
Data_PATH_09007_1_Final
 10
699962.577
 20
4554727.02
 30
0.0
  0
VERTEX
  8
Data_PATH_09007_1_Final
 10
700075.305
 20
4554607.53
 30
0.0
  0
VERTEX
  8
Data_PATH_09007_1_Final
 10
700115.347
 20
4554566.59
 30
0.0
  0
VERTEX
  8
Data_PATH_09007_1_Final
 10
700236.055
 20
4554452.26
 30
0.0
  0
VERTEX
  8
Data_PATH_09007_1_Final
 10
700273.128
 20
4554416.13
 30
0.0
  0
VERTEX
  8
Data_PATH_09007_1_Final
 10
700309.473
 20
4554378.6
 30
0.0
  0
VERTEX
  8
Data_PATH_09007_1_Final
 10
700346.854
 20
4554338.45
 30
0.0
  0
VERTEX
  8
Data_PATH_09007_1_Final
 10
700425.329
 20
4554250.16
 30
0.0
  0
VERTEX
  8
Data_PATH_09007_1_Final
 10
700462.915
 20
4554208.24
 30
0.0
  0
VERTEX
  8
Data_PATH_09007_1_Final
 10
700500.198
 20
4554169.06
 30
0.0
  0
VERTEX
  8
Data_PATH_09007_1_Final
 10
700579.98
 20
4554090.79
 30
0.0
  0
VERTEX
  8
Data_PATH_09007_1_Final
 10
700621.317
 20
4554048.4
 30
0.0
  0
VERTEX
  8
Data_PATH_09007_1_Final
 10
700739.983
 20
4553921.12
 30
0.0
  0
VERTEX
  8
Data_PATH_09007_1_Final
 10
700818.602
 20
4553838.85
 30
0.0
  0
VERTEX
  8
Data_PATH_09007_1_Final
 10
700878.203
 20
4553774.74
 30
0.0
  0
SEQEND
  8
Data_PATH_09007_1_Final
  0
TEXT
  8
Data_PATH_09007_1_Final
 10
692670.307
 20
4562718.24
 30
0.0
  1
L10050 E
 11
692670.307
 21
4562718.24
 31
0.0
 40
59.9999929
 41
1
 50
-46.544
 51
0
 71
0
 62
7
  7
ARIAL
 72
2
 73
0
  0
TEXT
  8
Data_PATH_09007_1_Final
 10
701005.347
 20
4553921.54
 30
0.0
  1
L10050 E
 11
701005.347
 21
4553921.54
 31
0.0
 40
59.9999929
 41
1
 50
-46.544
 51
0
 71
0
 62
7
  7
ARIAL
  0
POLYLINE
  8
Data_PATH_09007_1_Final
 66
1
 40
3.59999957
 41
3.59999957
 62
7
 10
700994.11
 20
4553977.02
 30
0.0
  0
VERTEX
  8
Data_PATH_09007_1_Final
 10
700994.11
 20
4553977.02
 30
0.0
  0
VERTEX
  8
Data_PATH_09007_1_Final
 10
700888.855
 20
4554106.34
 30
0.0
  0
VERTEX
  8
Data_PATH_09007_1_Final
 10
700855.545
 20
4554152.25
 30
0.0
  0
VERTEX
  8
Data_PATH_09007_1_Final
 10
700839.937
 20
4554176.3
 30
0.0
  0
VERTEX
  8
Data_PATH_09007_1_Final
 10
700825.203
 20
4554201.44
 30
0.0
  0
VERTEX
  8
Data_PATH_09007_1_Final
 10
700811.823
 20
4554227.97
 30
0.0
  0
VERTEX
  8
Data_PATH_09007_1_Final
 10
700799.573
 20
4554255.52
 30
0.0
  0
VERTEX
  8
Data_PATH_09007_1_Final
 10
700788.502
 20
4554283.75
 30
0.0
  0
VERTEX
  8
Data_PATH_09007_1_Final
 10
700778.545
 20
4554312.32
 30
0.0
  0
VERTEX
  8
Data_PATH_09007_1_Final
 10
700747.91
 20
4554410.18
 30
0.0
  0
VERTEX
  8
Data_PATH_09007_1_Final
 10
700731.081
 20
4554448.36
 30
0.0
  0
VERTEX
  8
Data_PATH_09007_1_Final
 10
700717.955
 20
4554472.23
 30
0.0
  0
VERTEX
  8
Data_PATH_09007_1_Final
 10
700702.408
 20
4554494.23
 30
0.0
  0
VERTEX
  8
Data_PATH_09007_1_Final
 10
700675.895
 20
4554524.7
 30
0.0
  0
VERTEX
  8
Data_PATH_09007_1_Final
 10
700645.665
 20
4554551.54
 30
0.0
  0
VERTEX
  8
Data_PATH_09007_1_Final
 10
700624.447
 20
4554568.23
 30
0.0
  0
VERTEX
  8
Data_PATH_09007_1_Final
 10
700475.703
 20
4554672.57
 30
0.0
  0
VERTEX
  8
Data_PATH_09007_1_Final
 10
700336.997
 20
4554769.68
 30
0.0
  0
VERTEX
  8
Data_PATH_09007_1_Final
 10
700291.485
 20
4554803.29
 30
0.0
  0
VERTEX
  8
Data_PATH_09007_1_Final
 10
700248.185
 20
4554838.13
 30
0.0
  0
VERTEX
  8
Data_PATH_09007_1_Final
 10
700160.984
 20
4554913.74
 30
0.0
  0
VERTEX
  8
Data_PATH_09007_1_Final
 10
700118.485
 20
4554952.53
 30
0.0
  0
VERTEX
  8
Data_PATH_09007_1_Final
 10
700078.692
 20
4554990.24
 30
0.0
  0
VERTEX
  8
Data_PATH_09007_1_Final
 10
700040.858
 20
4555028.13
 30
0.0
  0
VERTEX
  8
Data_PATH_09007_1_Final
 10
700003.384
 20
4555067.96
 30
0.0
  0
VERTEX
  8
Data_PATH_09007_1_Final
 10
699928.712
 20
4555152.34
 30
0.0
  0
VERTEX
  8
Data_PATH_09007_1_Final
 10
699890.894
 20
4555193.45
 30
0.0
  0
VERTEX
  8
Data_PATH_09007_1_Final
 10
699812.999
 20
4555273.07
 30
0.0
  0
VERTEX
  8
Data_PATH_09007_1_Final
 10
699773.234
 20
4555315.52
 30
0.0
  0
VERTEX
  8
Data_PATH_09007_1_Final
 10
699694.904
 20
4555404.37
 30
0.0
  0
VERTEX
  8
Data_PATH_09007_1_Final
 10
699653.481
 20
4555446
 30
0.0
  0
VERTEX
  8
Data_PATH_09007_1_Final
 10
699610.401
 20
4555485.05
 30
0.0
  0
VERTEX
  8
Data_PATH_09007_1_Final
 10
699566.645
 20
4555523.26
 30
0.0
  0
VERTEX
  8
Data_PATH_09007_1_Final
 10
699523.763
 20
4555563.89
 30
0.0
  0
VERTEX
  8
Data_PATH_09007_1_Final
 10
699503.067
 20
4555585.43
 30
0.0
  0
VERTEX
  8
Data_PATH_09007_1_Final
 10
699483.006
 20
4555607.7
 30
0.0
  0
VERTEX
  8
Data_PATH_09007_1_Final
 10
699407.424
 20
4555698.18
 30
0.0
  0
VERTEX
  8
Data_PATH_09007_1_Final
 10
699368.889
 20
4555741.13
 30
0.0
  0
VERTEX
  8
Data_PATH_09007_1_Final
 10
699288.005
 20
4555826.8
 30
0.0
  0
VERTEX
  8
Data_PATH_09007_1_Final
 10
699249.351
 20
4555871.44
 30
0.0
  0
VERTEX
  8
Data_PATH_09007_1_Final
 10
699212.163
 20
4555916.2
 30
0.0
  0
VERTEX
  8
Data_PATH_09007_1_Final
 10
699173.669
 20
4555960.58
 30
0.0
  0
VERTEX
  8
Data_PATH_09007_1_Final
 10
699132.448
 20
4556003.34
 30
0.0
  0
VERTEX
  8
Data_PATH_09007_1_Final
 10
699047.118
 20
4556085.54
 30
0.0
  0
VERTEX
  8
Data_PATH_09007_1_Final
 10
699007.582
 20
4556127.27
 30
0.0
  0
VERTEX
  8
Data_PATH_09007_1_Final
 10
698988.899
 20
4556148.97
 30
0.0
  0
VERTEX
  8
Data_PATH_09007_1_Final
 10
698896.182
 20
4556269.07
 30
0.0
  0
VERTEX
  8
Data_PATH_09007_1_Final
 10
698855.936
 20
4556316.47
 30
0.0
  0
VERTEX
  8
Data_PATH_09007_1_Final
 10
698814.409
 20
4556361.52
 30
0.0
  0
VERTEX
  8
Data_PATH_09007_1_Final
 10
698772.717
 20
4556404.87
 30
0.0
  0
VERTEX
  8
Data_PATH_09007_1_Final
 10
698732.208
 20
4556448.61
 30
0.0
  0
VERTEX
  8
Data_PATH_09007_1_Final
 10
698654.495
 20
4556536.48
 30
0.0
  0
VERTEX
  8
Data_PATH_09007_1_Final
 10
698613.391
 20
4556578.6
 30
0.0
  0
VERTEX
  8
Data_PATH_09007_1_Final
 10
698591.684
 20
4556598.69
 30
0.0
  0
VERTEX
  8
Data_PATH_09007_1_Final
 10
698476.849
 20
4556693.91
 30
0.0
  0
VERTEX
  8
Data_PATH_09007_1_Final
 10
698302.618
 20
4556852.33
 30
0.0
  0
VERTEX
  8
Data_PATH_09007_1_Final
 10
698261.421
 20
4556890.83
 30
0.0
  0
VERTEX
  8
Data_PATH_09007_1_Final
 10
698221.557
 20
4556931.1
 30
0.0
  0
VERTEX
  8
Data_PATH_09007_1_Final
 10
698140.775
 20
4557017.75
 30
0.0
  0
VERTEX
  8
Data_PATH_09007_1_Final
 10
698060.217
 20
4557101.79
 30
0.0
  0
VERTEX
  8
Data_PATH_09007_1_Final
 10
697902.385
 20
4557262.56
 30
0.0
  0
VERTEX
  8
Data_PATH_09007_1_Final
 10
697862.994
 20
4557303.78
 30
0.0
  0
VERTEX
  8
Data_PATH_09007_1_Final
 10
697825.484
 20
4557344.51
 30
0.0
  0
VERTEX
  8
Data_PATH_09007_1_Final
 10
697752.97
 20
4557424.83
 30
0.0
  0
VERTEX
  8
Data_PATH_09007_1_Final
 10
697675.447
 20
4557508.83
 30
0.0
  0
VERTEX
  8
Data_PATH_09007_1_Final
 10
697516.922
 20
4557682.15
 30
0.0
  0
VERTEX
  8
Data_PATH_09007_1_Final
 10
697435.317
 20
4557769.22
 30
0.0
  0
VERTEX
  8
Data_PATH_09007_1_Final
 10
697316.099
 20
4557904.33
 30
0.0
  0
VERTEX
  8
Data_PATH_09007_1_Final
 10
697276.581
 20
4557947.32
 30
0.0
  0
VERTEX
  8
Data_PATH_09007_1_Final
 10
697108.995
 20
4558119.23
 30
0.0
  0
VERTEX
  8
Data_PATH_09007_1_Final
 10
697065.673
 20
4558162.54
 30
0.0
  0
VERTEX
  8
Data_PATH_09007_1_Final
 10
697021.708
 20
4558202.47
 30
0.0
  0
VERTEX
  8
Data_PATH_09007_1_Final
 10
696933.24
 20
4558277.11
 30
0.0
  0
VERTEX
  8
Data_PATH_09007_1_Final
 10
696912.059
 20
4558296.91
 30
0.0
  0
VERTEX
  8
Data_PATH_09007_1_Final
 10
696891.5
 20
4558317.52
 30
0.0
  0
VERTEX
  8
Data_PATH_09007_1_Final
 10
696852.32
 20
4558360.73
 30
0.0
  0
VERTEX
  8
Data_PATH_09007_1_Final
 10
696777.15
 20
4558448.95
 30
0.0
  0
VERTEX
  8
Data_PATH_09007_1_Final
 10
696737.952
 20
4558491.09
 30
0.0
  0
VERTEX
  8
Data_PATH_09007_1_Final
 10
696611.731
 20
4558616.52
 30
0.0
  0
VERTEX
  8
Data_PATH_09007_1_Final
 10
696568.689
 20
4558661.93
 30
0.0
  0
VERTEX
  8
Data_PATH_09007_1_Final
 10
696486.762
 20
4558752.89
 30
0.0
  0
VERTEX
  8
Data_PATH_09007_1_Final
 10
696445.719
 20
4558796.42
 30
0.0
  0
VERTEX
  8
Data_PATH_09007_1_Final
 10
696361.124
 20
4558881.25
 30
0.0
  0
VERTEX
  8
Data_PATH_09007_1_Final
 10
696320.375
 20
4558924.65
 30
0.0
  0
VERTEX
  8
Data_PATH_09007_1_Final
 10
696281.528
 20
4558970.83
 30
0.0
  0
VERTEX
  8
Data_PATH_09007_1_Final
 10
696206.375
 20
4559066.46
 30
0.0
  0
VERTEX
  8
Data_PATH_09007_1_Final
 10
696167.075
 20
4559111.91
 30
0.0
  0
VERTEX
  8
Data_PATH_09007_1_Final
 10
696126.014
 20
4559154.52
 30
0.0
  0
VERTEX
  8
Data_PATH_09007_1_Final
 10
696083.895
 20
4559196.58
 30
0.0
  0
VERTEX
  8
Data_PATH_09007_1_Final
 10
696042.074
 20
4559239.72
 30
0.0
  0
VERTEX
  8
Data_PATH_09007_1_Final
 10
695960.915
 20
4559328.19
 30
0.0
  0
VERTEX
  8
Data_PATH_09007_1_Final
 10
695939.548
 20
4559350.29
 30
0.0
  0
VERTEX
  8
Data_PATH_09007_1_Final
 10
695917.178
 20
4559371.88
 30
0.0
  0
VERTEX
  8
Data_PATH_09007_1_Final
 10
695870.449
 20
4559413.72
 30
0.0
  0
VERTEX
  8
Data_PATH_09007_1_Final
 10
695822.933
 20
4559454.24
 30
0.0
  0
VERTEX
  8
Data_PATH_09007_1_Final
 10
695777.353
 20
4559495.02
 30
0.0
  0
VERTEX
  8
Data_PATH_09007_1_Final
 10
695689.052
 20
4559580.34
 30
0.0
  0
VERTEX
  8
Data_PATH_09007_1_Final
 10
695550.222
 20
4559714.04
 30
0.0
  0
VERTEX
  8
Data_PATH_09007_1_Final
 10
695507.248
 20
4559757.35
 30
0.0
  0
VERTEX
  8
Data_PATH_09007_1_Final
 10
695465.648
 20
4559801.91
 30
0.0
  0
VERTEX
  8
Data_PATH_09007_1_Final
 10
695382.419
 20
4559895.01
 30
0.0
  0
VERTEX
  8
Data_PATH_09007_1_Final
 10
695338.775
 20
4559940.7
 30
0.0
  0
VERTEX
  8
Data_PATH_09007_1_Final
 10
695251.635
 20
4560026.95
 30
0.0
  0
VERTEX
  8
Data_PATH_09007_1_Final
 10
695208.207
 20
4560071.98
 30
0.0
  0
VERTEX
  8
Data_PATH_09007_1_Final
 10
695165.65
 20
4560120.25
 30
0.0
  0
VERTEX
  8
Data_PATH_09007_1_Final
 10
695125.247
 20
4560171.09
 30
0.0
  0
VERTEX
  8
Data_PATH_09007_1_Final
 10
695086.064
 20
4560222.34
 30
0.0
  0
VERTEX
  8
Data_PATH_09007_1_Final
 10
695046.622
 20
4560272.27
 30
0.0
  0
VERTEX
  8
Data_PATH_09007_1_Final
 10
695005.882
 20
4560320.53
 30
0.0
  0
VERTEX
  8
Data_PATH_09007_1_Final
 10
694835.241
 20
4560511.05
 30
0.0
  0
VERTEX
  8
Data_PATH_09007_1_Final
 10
694792.363
 20
4560557.34
 30
0.0
  0
VERTEX
  8
Data_PATH_09007_1_Final
 10
694748.304
 20
4560602.26
 30
0.0
  0
VERTEX
  8
Data_PATH_09007_1_Final
 10
694702.663
 20
4560645.11
 30
0.0
  0
VERTEX
  8
Data_PATH_09007_1_Final
 10
694565.182
 20
4560764.22
 30
0.0
  0
VERTEX
  8
Data_PATH_09007_1_Final
 10
694521.366
 20
4560805.84
 30
0.0
  0
VERTEX
  8
Data_PATH_09007_1_Final
 10
694480.258
 20
4560849.96
 30
0.0
  0
VERTEX
  8
Data_PATH_09007_1_Final
 10
694401.656
 20
4560941.97
 30
0.0
  0
VERTEX
  8
Data_PATH_09007_1_Final
 10
694359.791
 20
4560988.52
 30
0.0
  0
VERTEX
  8
Data_PATH_09007_1_Final
 10
694232.83
 20
4561119.11
 30
0.0
  0
VERTEX
  8
Data_PATH_09007_1_Final
 10
694075.655
 20
4561292.47
 30
0.0
  0
VERTEX
  8
Data_PATH_09007_1_Final
 10
694035.545
 20
4561333.89
 30
0.0
  0
VERTEX
  8
Data_PATH_09007_1_Final
 10
693951.693
 20
4561417.24
 30
0.0
  0
VERTEX
  8
Data_PATH_09007_1_Final
 10
693910.159
 20
4561460.33
 30
0.0
  0
VERTEX
  8
Data_PATH_09007_1_Final
 10
693830.137
 20
4561546.83
 30
0.0
  0
VERTEX
  8
Data_PATH_09007_1_Final
 10
693789.075
 20
4561590.09
 30
0.0
  0
VERTEX
  8
Data_PATH_09007_1_Final
 10
693658.729
 20
4561720.42
 30
0.0
  0
VERTEX
  8
Data_PATH_09007_1_Final
 10
693573.985
 20
4561806.74
 30
0.0
  0
VERTEX
  8
Data_PATH_09007_1_Final
 10
693487.331
 20
4561892.69
 30
0.0
  0
VERTEX
  8
Data_PATH_09007_1_Final
 10
693348.032
 20
4562023.34
 30
0.0
  0
VERTEX
  8
Data_PATH_09007_1_Final
 10
693305.835
 20
4562064.19
 30
0.0
  0
VERTEX
  8
Data_PATH_09007_1_Final
 10
693265.106
 20
4562105.4
 30
0.0
  0
VERTEX
  8
Data_PATH_09007_1_Final
 10
693223.407
 20
4562149.75
 30
0.0
  0
VERTEX
  8
Data_PATH_09007_1_Final
 10
693022.599
 20
4562368.76
 30
0.0
  0
VERTEX
  8
Data_PATH_09007_1_Final
 10
692983.681
 20
4562412.42
 30
0.0
  0
VERTEX
  8
Data_PATH_09007_1_Final
 10
692870.621
 20
4562546.28
 30
0.0
  0
VERTEX
  8
Data_PATH_09007_1_Final
 10
692831.94
 20
4562589.09
 30
0.0
  0
VERTEX
  8
Data_PATH_09007_1_Final
 10
692752.33
 20
4562674.61
 30
0.0
  0
VERTEX
  8
Data_PATH_09007_1_Final
 10
692725.098
 20
4562704.03
 30
0.0
  0
SEQEND
  8
Data_PATH_09007_1_Final
  0
TEXT
  8
Data_PATH_09007_1_Final
 10
693060.584
 20
4562699.97
 30
0.0
  1
L10060 E
 11
693060.584
 21
4562699.97
 31
0.0
 40
59.9999929
 41
1
 50
-46.217
 51
0
 71
0
 62
7
  7
ARIAL
 72
2
 73
0
  0
TEXT
  8
Data_PATH_09007_1_Final
 10
701257.915
 20
4554146.69
 30
0.0
  1
L10060 E
 11
701257.915
 21
4554146.69
 31
0.0
 40
59.9999929
 41
1
 50
-46.217
 51
0
 71
0
 62
7
  7
ARIAL
  0
POLYLINE
  8
Data_PATH_09007_1_Final
 66
1
 40
3.59999957
 41
3.59999957
 62
7
 10
693115.455
 20
4562686.07
 30
0.0
  0
VERTEX
  8
Data_PATH_09007_1_Final
 10
693115.455
 20
4562686.07
 30
0.0
  0
VERTEX
  8
Data_PATH_09007_1_Final
 10
693154.004
 20
4562646.46
 30
0.0
  0
VERTEX
  8
Data_PATH_09007_1_Final
 10
693190.657
 20
4562607.43
 30
0.0
  0
VERTEX
  8
Data_PATH_09007_1_Final
 10
693262.634
 20
4562528.87
 30
0.0
  0
VERTEX
  8
Data_PATH_09007_1_Final
 10
693300.298
 20
4562489.84
 30
0.0
  0
VERTEX
  8
Data_PATH_09007_1_Final
 10
693376.051
 20
4562416.26
 30
0.0
  0
VERTEX
  8
Data_PATH_09007_1_Final
 10
693412.99
 20
4562378.41
 30
0.0
  0
VERTEX
  8
Data_PATH_09007_1_Final
 10
693523.699
 20
4562255.85
 30
0.0
  0
VERTEX
  8
Data_PATH_09007_1_Final
 10
693561.069
 20
4562216.82
 30
0.0
  0
VERTEX
  8
Data_PATH_09007_1_Final
 10
693673.406
 20
4562107.09
 30
0.0
  0
VERTEX
  8
Data_PATH_09007_1_Final
 10
693712.296
 20
4562067.9
 30
0.0
  0
VERTEX
  8
Data_PATH_09007_1_Final
 10
693790.073
 20
4561986.29
 30
0.0
  0
VERTEX
  8
Data_PATH_09007_1_Final
 10
693828.615
 20
4561947.85
 30
0.0
  0
VERTEX
  8
Data_PATH_09007_1_Final
 10
693867.78
 20
4561911.68
 30
0.0
  0
VERTEX
  8
Data_PATH_09007_1_Final
 10
693908.667
 20
4561875.53
 30
0.0
  0
VERTEX
  8
Data_PATH_09007_1_Final
 10
693950.656
 20
4561836.67
 30
0.0
  0
VERTEX
  8
Data_PATH_09007_1_Final
 10
693991.741
 20
4561794.86
 30
0.0
  0
VERTEX
  8
Data_PATH_09007_1_Final
 10
694030.365
 20
4561751.55
 30
0.0
  0
VERTEX
  8
Data_PATH_09007_1_Final
 10
694067.53
 20
4561707.33
 30
0.0
  0
VERTEX
  8
Data_PATH_09007_1_Final
 10
694105.627
 20
4561664.68
 30
0.0
  0
VERTEX
  8
Data_PATH_09007_1_Final
 10
694146.06
 20
4561624.43
 30
0.0
  0
VERTEX
  8
Data_PATH_09007_1_Final
 10
694232.312
 20
4561545.55
 30
0.0
  0
VERTEX
  8
Data_PATH_09007_1_Final
 10
694273.753
 20
4561504.31
 30
0.0
  0
VERTEX
  8
Data_PATH_09007_1_Final
 10
694349.874
 20
4561419.75
 30
0.0
  0
VERTEX
  8
Data_PATH_09007_1_Final
 10
694506.303
 20
4561251.74
 30
0.0
  0
VERTEX
  8
Data_PATH_09007_1_Final
 10
694619.887
 20
4561125.17
 30
0.0
  0
VERTEX
  8
Data_PATH_09007_1_Final
 10
694741.096
 20
4560997.09
 30
0.0
  0
VERTEX
  8
Data_PATH_09007_1_Final
 10
694779.202
 20
4560953.76
 30
0.0
  0
VERTEX
  8
Data_PATH_09007_1_Final
 10
694851.885
 20
4560862.49
 30
0.0
  0
VERTEX
  8
Data_PATH_09007_1_Final
 10
694887.189
 20
4560819.83
 30
0.0
  0
VERTEX
  8
Data_PATH_09007_1_Final
 10
694922.811
 20
4560780.68
 30
0.0
  0
VERTEX
  8
Data_PATH_09007_1_Final
 10
694999.923
 20
4560702.41
 30
0.0
  0
VERTEX
  8
Data_PATH_09007_1_Final
 10
695076.303
 20
4560617.65
 30
0.0
  0
VERTEX
  8
Data_PATH_09007_1_Final
 10
695114.56
 20
4560577.86
 30
0.0
  0
VERTEX
  8
Data_PATH_09007_1_Final
 10
695133.446
 20
4560559.81
 30
0.0
  0
VERTEX
  8
Data_PATH_09007_1_Final
 10
695152.282
 20
4560543.22
 30
0.0
  0
VERTEX
  8
Data_PATH_09007_1_Final
 10
695231.812
 20
4560478.96
 30
0.0
  0
VERTEX
  8
Data_PATH_09007_1_Final
 10
695251.086
 20
4560461.55
 30
0.0
  0
VERTEX
  8
Data_PATH_09007_1_Final
 10
695269.616
 20
4560443.4
 30
0.0
  0
VERTEX
  8
Data_PATH_09007_1_Final
 10
695304.471
 20
4560405.89
 30
0.0
  0
VERTEX
  8
Data_PATH_09007_1_Final
 10
695337.063
 20
4560368.5
 30
0.0
  0
VERTEX
  8
Data_PATH_09007_1_Final
 10
695370.206
 20
4560332.61
 30
0.0
  0
VERTEX
  8
Data_PATH_09007_1_Final
 10
695405.721
 20
4560298.42
 30
0.0
  0
VERTEX
  8
Data_PATH_09007_1_Final
 10
695442.713
 20
4560265.16
 30
0.0
  0
VERTEX
  8
Data_PATH_09007_1_Final
 10
695478.805
 20
4560231.38
 30
0.0
  0
VERTEX
  8
Data_PATH_09007_1_Final
 10
695512.456
 20
4560196.89
 30
0.0
  0
VERTEX
  8
Data_PATH_09007_1_Final
 10
695576.157
 20
4560127.67
 30
0.0
  0
VERTEX
  8
Data_PATH_09007_1_Final
 10
695679.829
 20
4560025.33
 30
0.0
  0
VERTEX
  8
Data_PATH_09007_1_Final
 10
695712.238
 20
4559989.15
 30
0.0
  0
VERTEX
  8
Data_PATH_09007_1_Final
 10
695774.182
 20
4559911.42
 30
0.0
  0
VERTEX
  8
Data_PATH_09007_1_Final
 10
695806.587
 20
4559873.26
 30
0.0
  0
VERTEX
  8
Data_PATH_09007_1_Final
 10
695874.814
 20
4559801.02
 30
0.0
  0
VERTEX
  8
Data_PATH_09007_1_Final
 10
695908.453
 20
4559763.89
 30
0.0
  0
VERTEX
  8
Data_PATH_09007_1_Final
 10
695972.226
 20
4559685.53
 30
0.0
  0
VERTEX
  8
Data_PATH_09007_1_Final
 10
695988.361
 20
4559666.77
 30
0.0
  0
VERTEX
  8
Data_PATH_09007_1_Final
 10
696005.181
 20
4559649.14
 30
0.0
  0
VERTEX
  8
Data_PATH_09007_1_Final
 10
696022.822
 20
4559632.33
 30
0.0
  0
VERTEX
  8
Data_PATH_09007_1_Final
 10
696041.338
 20
4559616.06
 30
0.0
  0
VERTEX
  8
Data_PATH_09007_1_Final
 10
696080.661
 20
4559583.8
 30
0.0
  0
VERTEX
  8
Data_PATH_09007_1_Final
 10
696120.115
 20
4559549.59
 30
0.0
  0
VERTEX
  8
Data_PATH_09007_1_Final
 10
696138.904
 20
4559531.48
 30
0.0
  0
VERTEX
  8
Data_PATH_09007_1_Final
 10
696156.894
 20
4559512.73
 30
0.0
  0
VERTEX
  8
Data_PATH_09007_1_Final
 10
696223.693
 20
4559436.47
 30
0.0
  0
VERTEX
  8
Data_PATH_09007_1_Final
 10
696258.059
 20
4559401.33
 30
0.0
  0
VERTEX
  8
Data_PATH_09007_1_Final
 10
696332.156
 20
4559333.22
 30
0.0
  0
VERTEX
  8
Data_PATH_09007_1_Final
 10
696368.442
 20
4559296.45
 30
0.0
  0
VERTEX
  8
Data_PATH_09007_1_Final
 10
696437.753
 20
4559221.12
 30
0.0
  0
VERTEX
  8
Data_PATH_09007_1_Final
 10
696473.042
 20
4559185.15
 30
0.0
  0
VERTEX
  8
Data_PATH_09007_1_Final
 10
696548.313
 20
4559113.55
 30
0.0
  0
VERTEX
  8
Data_PATH_09007_1_Final
 10
696586.653
 20
4559076
 30
0.0
  0
VERTEX
  8
Data_PATH_09007_1_Final
 10
696660.601
 20
4559000.79
 30
0.0
  0
VERTEX
  8
Data_PATH_09007_1_Final
 10
696699.929
 20
4558963.47
 30
0.0
  0
VERTEX
  8
Data_PATH_09007_1_Final
 10
696784.166
 20
4558888.64
 30
0.0
  0
VERTEX
  8
Data_PATH_09007_1_Final
 10
696823.898
 20
4558851.12
 30
0.0
  0
VERTEX
  8
Data_PATH_09007_1_Final
 10
696859.859
 20
4558812.7
 30
0.0
  0
VERTEX
  8
Data_PATH_09007_1_Final
 10
696964.857
 20
4558688.96
 30
0.0
  0
VERTEX
  8
Data_PATH_09007_1_Final
 10
697001.744
 20
4558647.65
 30
0.0
  0
VERTEX
  8
Data_PATH_09007_1_Final
 10
697185.713
 20
4558447.36
 30
0.0
  0
VERTEX
  8
Data_PATH_09007_1_Final
 10
697300.94
 20
4558329.01
 30
0.0
  0
VERTEX
  8
Data_PATH_09007_1_Final
 10
697605.058
 20
4558003.93
 30
0.0
  0
VERTEX
  8
Data_PATH_09007_1_Final
 10
697685.69
 20
4557919.15
 30
0.0
  0
VERTEX
  8
Data_PATH_09007_1_Final
 10
697767.067
 20
4557836.28
 30
0.0
  0
VERTEX
  8
Data_PATH_09007_1_Final
 10
697923.06
 20
4557669.97
 30
0.0
  0
VERTEX
  8
Data_PATH_09007_1_Final
 10
698227.048
 20
4557358.44
 30
0.0
  0
VERTEX
  8
Data_PATH_09007_1_Final
 10
698374.876
 20
4557203.38
 30
0.0
  0
VERTEX
  8
Data_PATH_09007_1_Final
 10
698525.805
 20
4557053.6
 30
0.0
  0
VERTEX
  8
Data_PATH_09007_1_Final
 10
698632.141
 20
4556938.59
 30
0.0
  0
VERTEX
  8
Data_PATH_09007_1_Final
 10
698669.317
 20
4556900.04
 30
0.0
  0
VERTEX
  8
Data_PATH_09007_1_Final
 10
698748.227
 20
4556821.32
 30
0.0
  0
VERTEX
  8
Data_PATH_09007_1_Final
 10
698822.271
 20
4556745.53
 30
0.0
  0
VERTEX
  8
Data_PATH_09007_1_Final
 10
698897.241
 20
4556666.76
 30
0.0
  0
VERTEX
  8
Data_PATH_09007_1_Final
 10
698937.324
 20
4556623.32
 30
0.0
  0
VERTEX
  8
Data_PATH_09007_1_Final
 10
698975.671
 20
4556579.8
 30
0.0
  0
VERTEX
  8
Data_PATH_09007_1_Final
 10
699112.75
 20
4556412.27
 30
0.0
  0
VERTEX
  8
Data_PATH_09007_1_Final
 10
699150.339
 20
4556367.91
 30
0.0
  0
VERTEX
  8
Data_PATH_09007_1_Final
 10
699190.09
 20
4556324.18
 30
0.0
  0
VERTEX
  8
Data_PATH_09007_1_Final
 10
699232.027
 20
4556282.75
 30
0.0
  0
VERTEX
  8
Data_PATH_09007_1_Final
 10
699276.054
 20
4556243.67
 30
0.0
  0
VERTEX
  8
Data_PATH_09007_1_Final
 10
699319.704
 20
4556206.64
 30
0.0
  0
VERTEX
  8
Data_PATH_09007_1_Final
 10
699361.649
 20
4556168.47
 30
0.0
  0
VERTEX
  8
Data_PATH_09007_1_Final
 10
699381.72
 20
4556148.38
 30
0.0
  0
VERTEX
  8
Data_PATH_09007_1_Final
 10
699401.037
 20
4556127.34
 30
0.0
  0
VERTEX
  8
Data_PATH_09007_1_Final
 10
699476.72
 20
4556040.96
 30
0.0
  0
VERTEX
  8
Data_PATH_09007_1_Final
 10
699517.202
 20
4555999.58
 30
0.0
  0
VERTEX
  8
Data_PATH_09007_1_Final
 10
699601.337
 20
4555918.49
 30
0.0
  0
VERTEX
  8
Data_PATH_09007_1_Final
 10
699639.726
 20
4555877.8
 30
0.0
  0
VERTEX
  8
Data_PATH_09007_1_Final
 10
699713.137
 20
4555794.93
 30
0.0
  0
VERTEX
  8
Data_PATH_09007_1_Final
 10
699752.281
 20
4555753.9
 30
0.0
  0
VERTEX
  8
Data_PATH_09007_1_Final
 10
699836.339
 20
4555673.53
 30
0.0
  0
VERTEX
  8
Data_PATH_09007_1_Final
 10
699877.62
 20
4555632.63
 30
0.0
  0
VERTEX
  8
Data_PATH_09007_1_Final
 10
699953.485
 20
4555552.04
 30
0.0
  0
VERTEX
  8
Data_PATH_09007_1_Final
 10
699992.276
 20
4555512.09
 30
0.0
  0
VERTEX
  8
Data_PATH_09007_1_Final
 10
700033.516
 20
4555472.05
 30
0.0
  0
VERTEX
  8
Data_PATH_09007_1_Final
 10
700118.097
 20
4555392.28
 30
0.0
  0
VERTEX
  8
Data_PATH_09007_1_Final
 10
700157.975
 20
4555351.37
 30
0.0
  0
VERTEX
  8
Data_PATH_09007_1_Final
 10
700266.077
 20
4555225.12
 30
0.0
  0
VERTEX
  8
Data_PATH_09007_1_Final
 10
700378.001
 20
4555105.2
 30
0.0
  0
VERTEX
  8
Data_PATH_09007_1_Final
 10
700482.251
 20
4554984.09
 30
0.0
  0
VERTEX
  8
Data_PATH_09007_1_Final
 10
700518.964
 20
4554945.17
 30
0.0
  0
VERTEX
  8
Data_PATH_09007_1_Final
 10
700594.803
 20
4554869.38
 30
0.0
  0
VERTEX
  8
Data_PATH_09007_1_Final
 10
700631.547
 20
4554829.75
 30
0.0
  0
VERTEX
  8
Data_PATH_09007_1_Final
 10
700703.222
 20
4554748.1
 30
0.0
  0
VERTEX
  8
Data_PATH_09007_1_Final
 10
700721.86
 20
4554728.54
 30
0.0
  0
VERTEX
  8
Data_PATH_09007_1_Final
 10
700741.268
 20
4554709.87
 30
0.0
  0
VERTEX
  8
Data_PATH_09007_1_Final
 10
700822.946
 20
4554637.71
 30
0.0
  0
VERTEX
  8
Data_PATH_09007_1_Final
 10
700862.409
 20
4554600.18
 30
0.0
  0
VERTEX
  8
Data_PATH_09007_1_Final
 10
700899.05
 20
4554561.27
 30
0.0
  0
VERTEX
  8
Data_PATH_09007_1_Final
 10
700968.567
 20
4554481.19
 30
0.0
  0
VERTEX
  8
Data_PATH_09007_1_Final
 10
701005.209
 20
4554441.51
 30
0.0
  0
VERTEX
  8
Data_PATH_09007_1_Final
 10
701043.634
 20
4554403.14
 30
0.0
  0
VERTEX
  8
Data_PATH_09007_1_Final
 10
701121.199
 20
4554327.99
 30
0.0
  0
VERTEX
  8
Data_PATH_09007_1_Final
 10
701199.172
 20
4554250.44
 30
0.0
  0
VERTEX
  8
Data_PATH_09007_1_Final
 10
701246.361
 20
4554202.1
 30
0.0
  0
SEQEND
  8
Data_PATH_09007_1_Final
  0
TEXT
  8
Data_PATH_09007_1_Final
 10
693418.79
 20
4562740.17
 30
0.0
  1
L10070 E
 11
693418.79
 21
4562740.17
 31
0.0
 40
59.9999929
 41
1
 50
-46.297
 51
0
 71
0
 62
7
  7
ARIAL
 72
2
 73
0
  0
TEXT
  8
Data_PATH_09007_1_Final
 10
701407.454
 20
4554381.4
 30
0.0
  1
L10070 E
 11
701407.454
 21
4554381.4
 31
0.0
 40
59.9999929
 41
1
 50
-46.297
 51
0
 71
0
 62
7
  7
ARIAL
  0
POLYLINE
  8
Data_PATH_09007_1_Final
 66
1
 40
3.59999957
 41
3.59999957
 62
7
 10
701395.978
 20
4554436.82
 30
0.0
  0
VERTEX
  8
Data_PATH_09007_1_Final
 10
701395.978
 20
4554436.82
 30
0.0
  0
VERTEX
  8
Data_PATH_09007_1_Final
 10
701351.637
 20
4554480.61
 30
0.0
  0
VERTEX
  8
Data_PATH_09007_1_Final
 10
701309.766
 20
4554526.49
 30
0.0
  0
VERTEX
  8
Data_PATH_09007_1_Final
 10
701231.301
 20
4554618.79
 30
0.0
  0
VERTEX
  8
Data_PATH_09007_1_Final
 10
701211.101
 20
4554640.77
 30
0.0
  0
VERTEX
  8
Data_PATH_09007_1_Final
 10
701190.169
 20
4554662.11
 30
0.0
  0
VERTEX
  8
Data_PATH_09007_1_Final
 10
701101.152
 20
4554745.64
 30
0.0
  0
VERTEX
  8
Data_PATH_09007_1_Final
 10
701079.056
 20
4554767.58
 30
0.0
  0
VERTEX
  8
Data_PATH_09007_1_Final
 10
701058.142
 20
4554789.75
 30
0.0
  0
VERTEX
  8
Data_PATH_09007_1_Final
 10
701018.696
 20
4554834.39
 30
0.0
  0
VERTEX
  8
Data_PATH_09007_1_Final
 10
700980.558
 20
4554879.41
 30
0.0
  0
VERTEX
  8
Data_PATH_09007_1_Final
 10
700940.443
 20
4554923.16
 30
0.0
  0
VERTEX
  8
Data_PATH_09007_1_Final
 10
700897.467
 20
4554965.16
 30
0.0
  0
VERTEX
  8
Data_PATH_09007_1_Final
 10
700852.376
 20
4555007
 30
0.0
  0
VERTEX
  8
Data_PATH_09007_1_Final
 10
700807.988
 20
4555050.89
 30
0.0
  0
VERTEX
  8
Data_PATH_09007_1_Final
 10
700786.883
 20
4555073.68
 30
0.0
  0
VERTEX
  8
Data_PATH_09007_1_Final
 10
700766.778
 20
4555096.88
 30
0.0
  0
VERTEX
  8
Data_PATH_09007_1_Final
 10
700693.935
 20
4555189.67
 30
0.0
  0
VERTEX
  8
Data_PATH_09007_1_Final
 10
700656.603
 20
4555234
 30
0.0
  0
VERTEX
  8
Data_PATH_09007_1_Final
 10
700616.292
 20
4555277.7
 30
0.0
  0
VERTEX
  8
Data_PATH_09007_1_Final
 10
700573.94
 20
4555322.05
 30
0.0
  0
VERTEX
  8
Data_PATH_09007_1_Final
 10
700532.185
 20
4555367.96
 30
0.0
  0
VERTEX
  8
Data_PATH_09007_1_Final
 10
700492.789
 20
4555414.49
 30
0.0
  0
VERTEX
  8
Data_PATH_09007_1_Final
 10
700454.999
 20
4555461.24
 30
0.0
  0
VERTEX
  8
Data_PATH_09007_1_Final
 10
700416.324
 20
4555507.28
 30
0.0
  0
VERTEX
  8
Data_PATH_09007_1_Final
 10
700395.884
 20
4555530
 30
0.0
  0
VERTEX
  8
Data_PATH_09007_1_Final
 10
700374.294
 20
4555552.55
 30
0.0
  0
VERTEX
  8
Data_PATH_09007_1_Final
 10
700328.776
 20
4555596.05
 30
0.0
  0
VERTEX
  8
Data_PATH_09007_1_Final
 10
700238.85
 20
4555678.96
 30
0.0
  0
VERTEX
  8
Data_PATH_09007_1_Final
 10
700156.444
 20
4555757.17
 30
0.0
  0
VERTEX
  8
Data_PATH_09007_1_Final
 10
700112.462
 20
4555795.29
 30
0.0
  0
VERTEX
  8
Data_PATH_09007_1_Final
 10
700065.947
 20
4555833.57
 30
0.0
  0
VERTEX
  8
Data_PATH_09007_1_Final
 10
699974.163
 20
4555911.01
 30
0.0
  0
VERTEX
  8
Data_PATH_09007_1_Final
 10
699929.422
 20
4555946.93
 30
0.0
  0
VERTEX
  8
Data_PATH_09007_1_Final
 10
699906.195
 20
4555962.86
 30
0.0
  0
VERTEX
  8
Data_PATH_09007_1_Final
 10
699882.068
 20
4555977.61
 30
0.0
  0
VERTEX
  8
Data_PATH_09007_1_Final
 10
699857.039
 20
4555991.25
 30
0.0
  0
VERTEX
  8
Data_PATH_09007_1_Final
 10
699831.179
 20
4556003.97
 30
0.0
  0
VERTEX
  8
Data_PATH_09007_1_Final
 10
699777.752
 20
4556027.69
 30
0.0
  0
VERTEX
  8
Data_PATH_09007_1_Final
 10
699725.286
 20
4556051.81
 30
0.0
  0
VERTEX
  8
Data_PATH_09007_1_Final
 10
699700.018
 20
4556064.7
 30
0.0
  0
VERTEX
  8
Data_PATH_09007_1_Final
 10
699675.508
 20
4556078.41
 30
0.0
  0
VERTEX
  8
Data_PATH_09007_1_Final
 10
699651.717
 20
4556093.49
 30
0.0
  0
VERTEX
  8
Data_PATH_09007_1_Final
 10
699628.364
 20
4556109.59
 30
0.0
  0
VERTEX
  8
Data_PATH_09007_1_Final
 10
699582.999
 20
4556144.07
 30
0.0
  0
VERTEX
  8
Data_PATH_09007_1_Final
 10
699561.026
 20
4556162.19
 30
0.0
  0
VERTEX
  8
Data_PATH_09007_1_Final
 10
699539.623
 20
4556181.12
 30
0.0
  0
VERTEX
  8
Data_PATH_09007_1_Final
 10
699497.94
 20
4556220.94
 30
0.0
  0
VERTEX
  8
Data_PATH_09007_1_Final
 10
699457.578
 20
4556263.25
 30
0.0
  0
VERTEX
  8
Data_PATH_09007_1_Final
 10
699418.89
 20
4556307.98
 30
0.0
  0
VERTEX
  8
Data_PATH_09007_1_Final
 10
699382.117
 20
4556354.53
 30
0.0
  0
VERTEX
  8
Data_PATH_09007_1_Final
 10
699347.621
 20
4556402.01
 30
0.0
  0
VERTEX
  8
Data_PATH_09007_1_Final
 10
699314.034
 20
4556449.9
 30
0.0
  0
VERTEX
  8
Data_PATH_09007_1_Final
 10
699191.729
 20
4556620.2
 30
0.0
  0
VERTEX
  8
Data_PATH_09007_1_Final
 10
699175.475
 20
4556645.75
 30
0.0
  0
VERTEX
  8
Data_PATH_09007_1_Final
 10
699145.455
 20
4556698.33
 30
0.0
  0
VERTEX
  8
Data_PATH_09007_1_Final
 10
699090.292
 20
4556805.84
 30
0.0
  0
VERTEX
  8
Data_PATH_09007_1_Final
 10
699060.101
 20
4556857.62
 30
0.0
  0
VERTEX
  8
Data_PATH_09007_1_Final
 10
699043.86
 20
4556882.5
 30
0.0
  0
VERTEX
  8
Data_PATH_09007_1_Final
 10
699026.481
 20
4556906.56
 30
0.0
  0
VERTEX
  8
Data_PATH_09007_1_Final
 10
698989.266
 20
4556953.27
 30
0.0
  0
VERTEX
  8
Data_PATH_09007_1_Final
 10
698949.572
 20
4556998.57
 30
0.0
  0
VERTEX
  8
Data_PATH_09007_1_Final
 10
698827.412
 20
4557133.13
 30
0.0
  0
VERTEX
  8
Data_PATH_09007_1_Final
 10
698785.972
 20
4557177.81
 30
0.0
  0
VERTEX
  8
Data_PATH_09007_1_Final
 10
698743.677
 20
4557221.31
 30
0.0
  0
VERTEX
  8
Data_PATH_09007_1_Final
 10
698659.903
 20
4557304.37
 30
0.0
  0
VERTEX
  8
Data_PATH_09007_1_Final
 10
698619.29
 20
4557346.72
 30
0.0
  0
VERTEX
  8
Data_PATH_09007_1_Final
 10
698497.757
 20
4557477.57
 30
0.0
  0
VERTEX
  8
Data_PATH_09007_1_Final
 10
698456.84
 20
4557519.38
 30
0.0
  0
VERTEX
  8
Data_PATH_09007_1_Final
 10
698371.166
 20
4557603.4
 30
0.0
  0
VERTEX
  8
Data_PATH_09007_1_Final
 10
698329.82
 20
4557645.98
 30
0.0
  0
VERTEX
  8
Data_PATH_09007_1_Final
 10
698251.629
 20
4557731.15
 30
0.0
  0
VERTEX
  8
Data_PATH_09007_1_Final
 10
698211.216
 20
4557771.82
 30
0.0
  0
VERTEX
  8
Data_PATH_09007_1_Final
 10
698126.635
 20
4557851.2
 30
0.0
  0
VERTEX
  8
Data_PATH_09007_1_Final
 10
698086.496
 20
4557893.24
 30
0.0
  0
VERTEX
  8
Data_PATH_09007_1_Final
 10
698049.036
 20
4557937.42
 30
0.0
  0
VERTEX
  8
Data_PATH_09007_1_Final
 10
697977.837
 20
4558025.89
 30
0.0
  0
VERTEX
  8
Data_PATH_09007_1_Final
 10
697939.902
 20
4558068.29
 30
0.0
  0
VERTEX
  8
Data_PATH_09007_1_Final
 10
697860.861
 20
4558148.83
 30
0.0
  0
VERTEX
  8
Data_PATH_09007_1_Final
 10
697747.154
 20
4558269.79
 30
0.0
  0
VERTEX
  8
Data_PATH_09007_1_Final
 10
697705.523
 20
4558309.07
 30
0.0
  0
VERTEX
  8
Data_PATH_09007_1_Final
 10
697615.743
 20
4558387.66
 30
0.0
  0
VERTEX
  8
Data_PATH_09007_1_Final
 10
697571.938
 20
4558428.71
 30
0.0
  0
VERTEX
  8
Data_PATH_09007_1_Final
 10
697551.427
 20
4558449.7
 30
0.0
  0
VERTEX
  8
Data_PATH_09007_1_Final
 10
697531.842
 20
4558471.12
 30
0.0
  0
VERTEX
  8
Data_PATH_09007_1_Final
 10
697456.575
 20
4558561.78
 30
0.0
  0
VERTEX
  8
Data_PATH_09007_1_Final
 10
697417
 20
4558607.6
 30
0.0
  0
VERTEX
  8
Data_PATH_09007_1_Final
 10
697376.143
 20
4558652.43
 30
0.0
  0
VERTEX
  8
Data_PATH_09007_1_Final
 10
697293.175
 20
4558738.73
 30
0.0
  0
VERTEX
  8
Data_PATH_09007_1_Final
 10
697175.676
 20
4558867.55
 30
0.0
  0
VERTEX
  8
Data_PATH_09007_1_Final
 10
697134.592
 20
4558910.38
 30
0.0
  0
VERTEX
  8
Data_PATH_09007_1_Final
 10
697054.651
 20
4558991.1
 30
0.0
  0
VERTEX
  8
Data_PATH_09007_1_Final
 10
697017.806
 20
4559031.81
 30
0.0
  0
VERTEX
  8
Data_PATH_09007_1_Final
 10
696800.346
 20
4559290.57
 30
0.0
  0
VERTEX
  8
Data_PATH_09007_1_Final
 10
696762.547
 20
4559331.55
 30
0.0
  0
VERTEX
  8
Data_PATH_09007_1_Final
 10
696741.451
 20
4559351.84
 30
0.0
  0
VERTEX
  8
Data_PATH_09007_1_Final
 10
696719.157
 20
4559371.81
 30
0.0
  0
VERTEX
  8
Data_PATH_09007_1_Final
 10
696671.814
 20
4559410.39
 30
0.0
  0
VERTEX
  8
Data_PATH_09007_1_Final
 10
696577.123
 20
4559481.94
 30
0.0
  0
VERTEX
  8
Data_PATH_09007_1_Final
 10
696533.692
 20
4559518.3
 30
0.0
  0
VERTEX
  8
Data_PATH_09007_1_Final
 10
696491.569
 20
4559557.3
 30
0.0
  0
VERTEX
  8
Data_PATH_09007_1_Final
 10
696449.493
 20
4559597.74
 30
0.0
  0
VERTEX
  8
Data_PATH_09007_1_Final
 10
696408.059
 20
4559638.89
 30
0.0
  0
VERTEX
  8
Data_PATH_09007_1_Final
 10
696368.066
 20
4559680.77
 30
0.0
  0
VERTEX
  8
Data_PATH_09007_1_Final
 10
696329.228
 20
4559723.42
 30
0.0
  0
VERTEX
  8
Data_PATH_09007_1_Final
 10
696252.247
 20
4559811.42
 30
0.0
  0
VERTEX
  8
Data_PATH_09007_1_Final
 10
696172.366
 20
4559900.46
 30
0.0
  0
VERTEX
  8
Data_PATH_09007_1_Final
 10
696089.089
 20
4559988.82
 30
0.0
  0
VERTEX
  8
Data_PATH_09007_1_Final
 10
695917.731
 20
4560164.75
 30
0.0
  0
VERTEX
  8
Data_PATH_09007_1_Final
 10
695785.412
 20
4560292.79
 30
0.0
  0
VERTEX
  8
Data_PATH_09007_1_Final
 10
695741.478
 20
4560337.57
 30
0.0
  0
VERTEX
  8
Data_PATH_09007_1_Final
 10
695618.899
 20
4560471.59
 30
0.0
  0
VERTEX
  8
Data_PATH_09007_1_Final
 10
695532.76
 20
4560559.4
 30
0.0
  0
VERTEX
  8
Data_PATH_09007_1_Final
 10
695488.913
 20
4560605.38
 30
0.0
  0
VERTEX
  8
Data_PATH_09007_1_Final
 10
695447.134
 20
4560652.85
 30
0.0
  0
VERTEX
  8
Data_PATH_09007_1_Final
 10
695367.735
 20
4560747.37
 30
0.0
  0
VERTEX
  8
Data_PATH_09007_1_Final
 10
695326.991
 20
4560791.92
 30
0.0
  0
VERTEX
  8
Data_PATH_09007_1_Final
 10
695284.447
 20
4560834.4
 30
0.0
  0
VERTEX
  8
Data_PATH_09007_1_Final
 10
695239.903
 20
4560876.54
 30
0.0
  0
VERTEX
  8
Data_PATH_09007_1_Final
 10
695194.911
 20
4560921.05
 30
0.0
  0
VERTEX
  8
Data_PATH_09007_1_Final
 10
695172.833
 20
4560944.42
 30
0.0
  0
VERTEX
  8
Data_PATH_09007_1_Final
 10
695151.493
 20
4560968.75
 30
0.0
  0
VERTEX
  8
Data_PATH_09007_1_Final
 10
695110.309
 20
4561019.04
 30
0.0
  0
VERTEX
  8
Data_PATH_09007_1_Final
 10
695070.15
 20
4561069.74
 30
0.0
  0
VERTEX
  8
Data_PATH_09007_1_Final
 10
695029.286
 20
4561117.74
 30
0.0
  0
VERTEX
  8
Data_PATH_09007_1_Final
 10
694986.504
 20
4561162.42
 30
0.0
  0
VERTEX
  8
Data_PATH_09007_1_Final
 10
694896.017
 20
4561247.92
 30
0.0
  0
VERTEX
  8
Data_PATH_09007_1_Final
 10
694873.892
 20
4561270.88
 30
0.0
  0
VERTEX
  8
Data_PATH_09007_1_Final
 10
694852.204
 20
4561295.03
 30
0.0
  0
VERTEX
  8
Data_PATH_09007_1_Final
 10
694769.604
 20
4561393
 30
0.0
  0
VERTEX
  8
Data_PATH_09007_1_Final
 10
694748.675
 20
4561416.3
 30
0.0
  0
VERTEX
  8
Data_PATH_09007_1_Final
 10
694726.771
 20
4561438.23
 30
0.0
  0
VERTEX
  8
Data_PATH_09007_1_Final
 10
694680.45
 20
4561480
 30
0.0
  0
VERTEX
  8
Data_PATH_09007_1_Final
 10
694631.993
 20
4561520.74
 30
0.0
  0
VERTEX
  8
Data_PATH_09007_1_Final
 10
694584.182
 20
4561563.11
 30
0.0
  0
VERTEX
  8
Data_PATH_09007_1_Final
 10
694539.227
 20
4561607.32
 30
0.0
  0
VERTEX
  8
Data_PATH_09007_1_Final
 10
694453.955
 20
4561696.52
 30
0.0
  0
VERTEX
  8
Data_PATH_09007_1_Final
 10
694408.69
 20
4561738.99
 30
0.0
  0
VERTEX
  8
Data_PATH_09007_1_Final
 10
694362.819
 20
4561779.48
 30
0.0
  0
VERTEX
  8
Data_PATH_09007_1_Final
 10
694318.547
 20
4561820.34
 30
0.0
  0
VERTEX
  8
Data_PATH_09007_1_Final
 10
694275.863
 20
4561863.76
 30
0.0
  0
VERTEX
  8
Data_PATH_09007_1_Final
 10
694233.875
 20
4561910.29
 30
0.0
  0
VERTEX
  8
Data_PATH_09007_1_Final
 10
694068.871
 20
4562100.69
 30
0.0
  0
VERTEX
  8
Data_PATH_09007_1_Final
 10
694027.83
 20
4562151.1
 30
0.0
  0
VERTEX
  8
Data_PATH_09007_1_Final
 10
693952.472
 20
4562250.91
 30
0.0
  0
VERTEX
  8
Data_PATH_09007_1_Final
 10
693914.641
 20
4562298.9
 30
0.0
  0
VERTEX
  8
Data_PATH_09007_1_Final
 10
693894.419
 20
4562322.64
 30
0.0
  0
VERTEX
  8
Data_PATH_09007_1_Final
 10
693872.88
 20
4562346.32
 30
0.0
  0
VERTEX
  8
Data_PATH_09007_1_Final
 10
693784.777
 20
4562438.66
 30
0.0
  0
VERTEX
  8
Data_PATH_09007_1_Final
 10
693742.209
 20
4562481.52
 30
0.0
  0
VERTEX
  8
Data_PATH_09007_1_Final
 10
693699.641
 20
4562522.76
 30
0.0
  0
VERTEX
  8
Data_PATH_09007_1_Final
 10
693473.642
 20
4562726.2
 30
0.0
  0
SEQEND
  8
Data_PATH_09007_1_Final
  0
TEXT
  8
Data_PATH_09007_1_Final
 10
693822.015
 20
4562723.96
 30
0.0
  1
L10080 E
 11
693822.015
 21
4562723.96
 31
0.0
 40
59.9999929
 41
1
 50
-46.263
 51
0
 71
0
 62
7
  7
ARIAL
 72
2
 73
0
  0
TEXT
  8
Data_PATH_09007_1_Final
 10
701613.913
 20
4554580.71
 30
0.0
  1
L10080 E
 11
701613.913
 21
4554580.71
 31
0.0
 40
59.9999929
 41
1
 50
-46.263
 51
0
 71
0
 62
7
  7
ARIAL
  0
POLYLINE
  8
Data_PATH_09007_1_Final
 66
1
 40
3.59999957
 41
3.59999957
 62
7
 10
693876.875
 20
4562710.02
 30
0.0
  0
VERTEX
  8
Data_PATH_09007_1_Final
 10
693876.875
 20
4562710.02
 30
0.0
  0
VERTEX
  8
Data_PATH_09007_1_Final
 10
694106.705
 20
4562474.14
 30
0.0
  0
VERTEX
  8
Data_PATH_09007_1_Final
 10
694182.227
 20
4562391.53
 30
0.0
  0
VERTEX
  8
Data_PATH_09007_1_Final
 10
694329.219
 20
4562227.9
 30
0.0
  0
VERTEX
  8
Data_PATH_09007_1_Final
 10
694403.856
 20
4562143.6
 30
0.0
  0
VERTEX
  8
Data_PATH_09007_1_Final
 10
694476.286
 20
4562063.35
 30
0.0
  0
VERTEX
  8
Data_PATH_09007_1_Final
 10
694554.051
 20
4561979.82
 30
0.0
  0
VERTEX
  8
Data_PATH_09007_1_Final
 10
694631.677
 20
4561897.87
 30
0.0
  0
VERTEX
  8
Data_PATH_09007_1_Final
 10
694705.233
 20
4561817.73
 30
0.0
  0
VERTEX
  8
Data_PATH_09007_1_Final
 10
694823.182
 20
4561682.88
 30
0.0
  0
VERTEX
  8
Data_PATH_09007_1_Final
 10
694862.024
 20
4561640.45
 30
0.0
  0
VERTEX
  8
Data_PATH_09007_1_Final
 10
694900.984
 20
4561600.81
 30
0.0
  0
VERTEX
  8
Data_PATH_09007_1_Final
 10
694941.574
 20
4561563.06
 30
0.0
  0
VERTEX
  8
Data_PATH_09007_1_Final
 10
695026.568
 20
4561487.42
 30
0.0
  0
VERTEX
  8
Data_PATH_09007_1_Final
 10
695068.116
 20
4561448.35
 30
0.0
  0
VERTEX
  8
Data_PATH_09007_1_Final
 10
695107.208
 20
4561410.13
 30
0.0
  0
VERTEX
  8
Data_PATH_09007_1_Final
 10
695181.182
 20
4561335.59
 30
0.0
  0
VERTEX
  8
Data_PATH_09007_1_Final
 10
695259.499
 20
4561259.68
 30
0.0
  0
VERTEX
  8
Data_PATH_09007_1_Final
 10
695297.497
 20
4561220.87
 30
0.0
  0
VERTEX
  8
Data_PATH_09007_1_Final
 10
695403.676
 20
4561104.93
 30
0.0
  0
VERTEX
  8
Data_PATH_09007_1_Final
 10
695514.277
 20
4560995.46
 30
0.0
  0
VERTEX
  8
Data_PATH_09007_1_Final
 10
695550.388
 20
4560957.17
 30
0.0
  0
VERTEX
  8
Data_PATH_09007_1_Final
 10
695618.08
 20
4560880.48
 30
0.0
  0
VERTEX
  8
Data_PATH_09007_1_Final
 10
695652.999
 20
4560844.56
 30
0.0
  0
VERTEX
  8
Data_PATH_09007_1_Final
 10
695729.318
 20
4560774.6
 30
0.0
  0
VERTEX
  8
Data_PATH_09007_1_Final
 10
695768.241
 20
4560737.35
 30
0.0
  0
VERTEX
  8
Data_PATH_09007_1_Final
 10
695804.83
 20
4560697.91
 30
0.0
  0
VERTEX
  8
Data_PATH_09007_1_Final
 10
695857.47
 20
4560639.61
 30
0.0
  0
VERTEX
  8
Data_PATH_09007_1_Final
 10
695875.942
 20
4560621.84
 30
0.0
  0
VERTEX
  8
Data_PATH_09007_1_Final
 10
695905.224
 20
4560597.25
 30
0.0
  0
VERTEX
  8
Data_PATH_09007_1_Final
 10
695937.581
 20
4560575.36
 30
0.0
  0
VERTEX
  8
Data_PATH_09007_1_Final
 10
696028.803
 20
4560519.92
 30
0.0
  0
VERTEX
  8
Data_PATH_09007_1_Final
 10
696050.039
 20
4560505.22
 30
0.0
  0
VERTEX
  8
Data_PATH_09007_1_Final
 10
696069.948
 20
4560489.88
 30
0.0
  0
VERTEX
  8
Data_PATH_09007_1_Final
 10
696088.156
 20
4560473.87
 30
0.0
  0
VERTEX
  8
Data_PATH_09007_1_Final
 10
696105.41
 20
4560457.41
 30
0.0
  0
VERTEX
  8
Data_PATH_09007_1_Final
 10
696138.054
 20
4560423.22
 30
0.0
  0
VERTEX
  8
Data_PATH_09007_1_Final
 10
696235.249
 20
4560312.09
 30
0.0
  0
VERTEX
  8
Data_PATH_09007_1_Final
 10
696265.948
 20
4560272.96
 30
0.0
  0
VERTEX
  8
Data_PATH_09007_1_Final
 10
696294.138
 20
4560232.57
 30
0.0
  0
VERTEX
  8
Data_PATH_09007_1_Final
 10
696319.694
 20
4560192.61
 30
0.0
  0
VERTEX
  8
Data_PATH_09007_1_Final
 10
696368.616
 20
4560112.11
 30
0.0
  0
VERTEX
  8
Data_PATH_09007_1_Final
 10
696397.263
 20
4560070.18
 30
0.0
  0
VERTEX
  8
Data_PATH_09007_1_Final
 10
696413.05
 20
4560049.47
 30
0.0
  0
VERTEX
  8
Data_PATH_09007_1_Final
 10
696429.717
 20
4560029.27
 30
0.0
  0
VERTEX
  8
Data_PATH_09007_1_Final
 10
696447.247
 20
4560009.66
 30
0.0
  0
VERTEX
  8
Data_PATH_09007_1_Final
 10
696465.669
 20
4559990.89
 30
0.0
  0
VERTEX
  8
Data_PATH_09007_1_Final
 10
696541.631
 20
4559917.13
 30
0.0
  0
VERTEX
  8
Data_PATH_09007_1_Final
 10
696577.859
 20
4559877.85
 30
0.0
  0
VERTEX
  8
Data_PATH_09007_1_Final
 10
696648.406
 20
4559796.48
 30
0.0
  0
VERTEX
  8
Data_PATH_09007_1_Final
 10
696686.819
 20
4559755.74
 30
0.0
  0
VERTEX
  8
Data_PATH_09007_1_Final
 10
696726.923
 20
4559716.51
 30
0.0
  0
VERTEX
  8
Data_PATH_09007_1_Final
 10
696845.974
 20
4559609.2
 30
0.0
  0
VERTEX
  8
Data_PATH_09007_1_Final
 10
697013.23
 20
4559450.15
 30
0.0
  0
VERTEX
  8
Data_PATH_09007_1_Final
 10
697052.872
 20
4559411.24
 30
0.0
  0
VERTEX
  8
Data_PATH_09007_1_Final
 10
697092.722
 20
4559370.19
 30
0.0
  0
VERTEX
  8
Data_PATH_09007_1_Final
 10
697132.366
 20
4559326.94
 30
0.0
  0
VERTEX
  8
Data_PATH_09007_1_Final
 10
697241.364
 20
4559201.57
 30
0.0
  0
VERTEX
  8
Data_PATH_09007_1_Final
 10
697277.5
 20
4559161
 30
0.0
  0
VERTEX
  8
Data_PATH_09007_1_Final
 10
697385.752
 20
4559046.17
 30
0.0
  0
VERTEX
  8
Data_PATH_09007_1_Final
 10
697403.536
 20
4559026.27
 30
0.0
  0
VERTEX
  8
Data_PATH_09007_1_Final
 10
697421.197
 20
4559005.04
 30
0.0
  0
VERTEX
  8
Data_PATH_09007_1_Final
 10
697488.223
 20
4558919.47
 30
0.0
  0
VERTEX
  8
Data_PATH_09007_1_Final
 10
697521.716
 20
4558881.31
 30
0.0
  0
VERTEX
  8
Data_PATH_09007_1_Final
 10
697556.955
 20
4558845.9
 30
0.0
  0
VERTEX
  8
Data_PATH_09007_1_Final
 10
697633.694
 20
4558773.02
 30
0.0
  0
VERTEX
  8
Data_PATH_09007_1_Final
 10
697671.421
 20
4558732.55
 30
0.0
  0
VERTEX
  8
Data_PATH_09007_1_Final
 10
697737.507
 20
4558653.95
 30
0.0
  0
VERTEX
  8
Data_PATH_09007_1_Final
 10
697753.705
 20
4558636.01
 30
0.0
  0
VERTEX
  8
Data_PATH_09007_1_Final
 10
697771.114
 20
4558618.23
 30
0.0
  0
VERTEX
  8
Data_PATH_09007_1_Final
 10
697849.783
 20
4558542.97
 30
0.0
  0
VERTEX
  8
Data_PATH_09007_1_Final
 10
697889.839
 20
4558501.89
 30
0.0
  0
VERTEX
  8
Data_PATH_09007_1_Final
 10
697959.382
 20
4558425.15
 30
0.0
  0
VERTEX
  8
Data_PATH_09007_1_Final
 10
697994.208
 20
4558389.26
 30
0.0
  0
VERTEX
  8
Data_PATH_09007_1_Final
 10
698076.325
 20
4558312.23
 30
0.0
  0
VERTEX
  8
Data_PATH_09007_1_Final
 10
698117.672
 20
4558272.03
 30
0.0
  0
VERTEX
  8
Data_PATH_09007_1_Final
 10
698262.494
 20
4558118.54
 30
0.0
  0
VERTEX
  8
Data_PATH_09007_1_Final
 10
698338.126
 20
4558042.44
 30
0.0
  0
VERTEX
  8
Data_PATH_09007_1_Final
 10
698633.01
 20
4557740.1
 30
0.0
  0
VERTEX
  8
Data_PATH_09007_1_Final
 10
698708.104
 20
4557665.19
 30
0.0
  0
VERTEX
  8
Data_PATH_09007_1_Final
 10
698785.971
 20
4557589.84
 30
0.0
  0
VERTEX
  8
Data_PATH_09007_1_Final
 10
698824.895
 20
4557550.85
 30
0.0
  0
VERTEX
  8
Data_PATH_09007_1_Final
 10
698863.03
 20
4557510.62
 30
0.0
  0
VERTEX
  8
Data_PATH_09007_1_Final
 10
698899.94
 20
4557469.61
 30
0.0
  0
VERTEX
  8
Data_PATH_09007_1_Final
 10
699004.109
 20
4557349.23
 30
0.0
  0
VERTEX
  8
Data_PATH_09007_1_Final
 10
699078.856
 20
4557268.13
 30
0.0
  0
VERTEX
  8
Data_PATH_09007_1_Final
 10
699188.942
 20
4557145.17
 30
0.0
  0
VERTEX
  8
Data_PATH_09007_1_Final
 10
699226.453
 20
4557105.86
 30
0.0
  0
VERTEX
  8
Data_PATH_09007_1_Final
 10
699246.618
 20
4557086.37
 30
0.0
  0
VERTEX
  8
Data_PATH_09007_1_Final
 10
699268.258
 20
4557067.04
 30
0.0
  0
VERTEX
  8
Data_PATH_09007_1_Final
 10
699314.019
 20
4557029.65
 30
0.0
  0
VERTEX
  8
Data_PATH_09007_1_Final
 10
699361.635
 20
4556994.53
 30
0.0
  0
VERTEX
  8
Data_PATH_09007_1_Final
 10
699458.681
 20
4556928.82
 30
0.0
  0
VERTEX
  8
Data_PATH_09007_1_Final
 10
699552.492
 20
4556863.34
 30
0.0
  0
VERTEX
  8
Data_PATH_09007_1_Final
 10
699599.562
 20
4556829.41
 30
0.0
  0
VERTEX
  8
Data_PATH_09007_1_Final
 10
699645.905
 20
4556794.06
 30
0.0
  0
VERTEX
  8
Data_PATH_09007_1_Final
 10
699690.765
 20
4556757.52
 30
0.0
  0
VERTEX
  8
Data_PATH_09007_1_Final
 10
699733.641
 20
4556720.13
 30
0.0
  0
VERTEX
  8
Data_PATH_09007_1_Final
 10
699817.255
 20
4556642.96
 30
0.0
  0
VERTEX
  8
Data_PATH_09007_1_Final
 10
699857.673
 20
4556601.11
 30
0.0
  0
VERTEX
  8
Data_PATH_09007_1_Final
 10
699876.658
 20
4556579.13
 30
0.0
  0
VERTEX
  8
Data_PATH_09007_1_Final
 10
699894.624
 20
4556556.51
 30
0.0
  0
VERTEX
  8
Data_PATH_09007_1_Final
 10
699911.51
 20
4556533.56
 30
0.0
  0
VERTEX
  8
Data_PATH_09007_1_Final
 10
699959.237
 20
4556460.83
 30
0.0
  0
VERTEX
  8
Data_PATH_09007_1_Final
 10
699992.519
 20
4556412.52
 30
0.0
  0
VERTEX
  8
Data_PATH_09007_1_Final
 10
700010.89
 20
4556389.86
 30
0.0
  0
VERTEX
  8
Data_PATH_09007_1_Final
 10
700030.282
 20
4556368.23
 30
0.0
  0
VERTEX
  8
Data_PATH_09007_1_Final
 10
700071.231
 20
4556327.66
 30
0.0
  0
VERTEX
  8
Data_PATH_09007_1_Final
 10
700112.316
 20
4556289.26
 30
0.0
  0
VERTEX
  8
Data_PATH_09007_1_Final
 10
700140.701
 20
4556259.67
 30
0.0
  0
VERTEX
  8
Data_PATH_09007_1_Final
 10
700165.186
 20
4556227.17
 30
0.0
  0
VERTEX
  8
Data_PATH_09007_1_Final
 10
700179.904
 20
4556204.52
 30
0.0
  0
VERTEX
  8
Data_PATH_09007_1_Final
 10
700192.992
 20
4556180.9
 30
0.0
  0
VERTEX
  8
Data_PATH_09007_1_Final
 10
700241.073
 20
4556084.32
 30
0.0
  0
VERTEX
  8
Data_PATH_09007_1_Final
 10
700253.79
 20
4556061.48
 30
0.0
  0
VERTEX
  8
Data_PATH_09007_1_Final
 10
700267.154
 20
4556039.51
 30
0.0
  0
VERTEX
  8
Data_PATH_09007_1_Final
 10
700295.165
 20
4555998.44
 30
0.0
  0
VERTEX
  8
Data_PATH_09007_1_Final
 10
700310.052
 20
4555979.08
 30
0.0
  0
VERTEX
  8
Data_PATH_09007_1_Final
 10
700398.109
 20
4555882.64
 30
0.0
  0
VERTEX
  8
Data_PATH_09007_1_Final
 10
700459.952
 20
4555807.73
 30
0.0
  0
VERTEX
  8
Data_PATH_09007_1_Final
 10
700476.458
 20
4555790.5
 30
0.0
  0
VERTEX
  8
Data_PATH_09007_1_Final
 10
700494.082
 20
4555774.39
 30
0.0
  0
VERTEX
  8
Data_PATH_09007_1_Final
 10
700531.787
 20
4555744
 30
0.0
  0
VERTEX
  8
Data_PATH_09007_1_Final
 10
700570.74
 20
4555714.59
 30
0.0
  0
VERTEX
  8
Data_PATH_09007_1_Final
 10
700607.579
 20
4555683.74
 30
0.0
  0
VERTEX
  8
Data_PATH_09007_1_Final
 10
700641.209
 20
4555651.08
 30
0.0
  0
VERTEX
  8
Data_PATH_09007_1_Final
 10
700702.55
 20
4555580.54
 30
0.0
  0
VERTEX
  8
Data_PATH_09007_1_Final
 10
700734.443
 20
4555545.18
 30
0.0
  0
VERTEX
  8
Data_PATH_09007_1_Final
 10
700769.088
 20
4555511.25
 30
0.0
  0
VERTEX
  8
Data_PATH_09007_1_Final
 10
700845.009
 20
4555444.3
 30
0.0
  0
VERTEX
  8
Data_PATH_09007_1_Final
 10
700881.376
 20
4555410.78
 30
0.0
  0
VERTEX
  8
Data_PATH_09007_1_Final
 10
700915.517
 20
4555376.97
 30
0.0
  0
VERTEX
  8
Data_PATH_09007_1_Final
 10
701056.223
 20
4555229.71
 30
0.0
  0
VERTEX
  8
Data_PATH_09007_1_Final
 10
701092.103
 20
4555190.12
 30
0.0
  0
VERTEX
  8
Data_PATH_09007_1_Final
 10
701193.46
 20
4555069.86
 30
0.0
  0
VERTEX
  8
Data_PATH_09007_1_Final
 10
701228.452
 20
4555031.29
 30
0.0
  0
VERTEX
  8
Data_PATH_09007_1_Final
 10
701265.279
 20
4554992.26
 30
0.0
  0
VERTEX
  8
Data_PATH_09007_1_Final
 10
701302.868
 20
4554951.86
 30
0.0
  0
VERTEX
  8
Data_PATH_09007_1_Final
 10
701340.235
 20
4554909.91
 30
0.0
  0
VERTEX
  8
Data_PATH_09007_1_Final
 10
701377.408
 20
4554867.35
 30
0.0
  0
VERTEX
  8
Data_PATH_09007_1_Final
 10
701415.204
 20
4554827.14
 30
0.0
  0
VERTEX
  8
Data_PATH_09007_1_Final
 10
701454.99
 20
4554789.08
 30
0.0
  0
VERTEX
  8
Data_PATH_09007_1_Final
 10
701496.721
 20
4554750.69
 30
0.0
  0
VERTEX
  8
Data_PATH_09007_1_Final
 10
701538.471
 20
4554709.33
 30
0.0
  0
VERTEX
  8
Data_PATH_09007_1_Final
 10
701558.505
 20
4554687.91
 30
0.0
  0
VERTEX
  8
Data_PATH_09007_1_Final
 10
701602.404
 20
4554636.14
 30
0.0
  0
SEQEND
  8
Data_PATH_09007_1_Final
  0
TEXT
  8
Data_PATH_09007_1_Final
 10
694159.863
 20
4562770.26
 30
0.0
  1
L10090 E
 11
694159.863
 21
4562770.26
 31
0.0
 40
59.9999929
 41
1
 50
-46.318
 51
0
 71
0
 62
7
  7
ARIAL
 72
2
 73
0
  0
TEXT
  8
Data_PATH_09007_1_Final
 10
701765.009
 20
4554806.81
 30
0.0
  1
L10090 E
 11
701765.009
 21
4554806.81
 31
0.0
 40
59.9999929
 41
1
 50
-46.318
 51
0
 71
0
 62
7
  7
ARIAL
  0
POLYLINE
  8
Data_PATH_09007_1_Final
 66
1
 40
3.59999957
 41
3.59999957
 62
7
 10
701753.553
 20
4554862.24
 30
0.0
  0
VERTEX
  8
Data_PATH_09007_1_Final
 10
701753.553
 20
4554862.24
 30
0.0
  0
VERTEX
  8
Data_PATH_09007_1_Final
 10
701664.989
 20
4554951.68
 30
0.0
  0
VERTEX
  8
Data_PATH_09007_1_Final
 10
701577.845
 20
4555041.62
 30
0.0
  0
VERTEX
  8
Data_PATH_09007_1_Final
 10
701489.135
 20
4555132.18
 30
0.0
  0
VERTEX
  8
Data_PATH_09007_1_Final
 10
701445.9
 20
4555178.4
 30
0.0
  0
VERTEX
  8
Data_PATH_09007_1_Final
 10
701404.724
 20
4555225.45
 30
0.0
  0
VERTEX
  8
Data_PATH_09007_1_Final
 10
701325.421
 20
4555320.61
 30
0.0
  0
VERTEX
  8
Data_PATH_09007_1_Final
 10
701242.047
 20
4555417.49
 30
0.0
  0
VERTEX
  8
Data_PATH_09007_1_Final
 10
701200.137
 20
4555464.43
 30
0.0
  0
VERTEX
  8
Data_PATH_09007_1_Final
 10
701158.344
 20
4555508.88
 30
0.0
  0
VERTEX
  8
Data_PATH_09007_1_Final
 10
701071.194
 20
4555595.78
 30
0.0
  0
VERTEX
  8
Data_PATH_09007_1_Final
 10
700979.726
 20
4555686.47
 30
0.0
  0
VERTEX
  8
Data_PATH_09007_1_Final
 10
700891.833
 20
4555779.29
 30
0.0
  0
VERTEX
  8
Data_PATH_09007_1_Final
 10
700805.673
 20
4555870.3
 30
0.0
  0
VERTEX
  8
Data_PATH_09007_1_Final
 10
700716.08
 20
4555961.02
 30
0.0
  0
VERTEX
  8
Data_PATH_09007_1_Final
 10
700580.649
 20
4556101.77
 30
0.0
  0
VERTEX
  8
Data_PATH_09007_1_Final
 10
700534.077
 20
4556148.77
 30
0.0
  0
VERTEX
  8
Data_PATH_09007_1_Final
 10
700436.866
 20
4556243.98
 30
0.0
  0
VERTEX
  8
Data_PATH_09007_1_Final
 10
700390.055
 20
4556291.48
 30
0.0
  0
VERTEX
  8
Data_PATH_09007_1_Final
 10
700254.746
 20
4556437.09
 30
0.0
  0
VERTEX
  8
Data_PATH_09007_1_Final
 10
700209.585
 20
4556482.92
 30
0.0
  0
VERTEX
  8
Data_PATH_09007_1_Final
 10
700077.825
 20
4556607.98
 30
0.0
  0
VERTEX
  8
Data_PATH_09007_1_Final
 10
700035.563
 20
4556651.52
 30
0.0
  0
VERTEX
  8
Data_PATH_09007_1_Final
 10
699994.912
 20
4556697.41
 30
0.0
  0
VERTEX
  8
Data_PATH_09007_1_Final
 10
699918.402
 20
4556787.52
 30
0.0
  0
VERTEX
  8
Data_PATH_09007_1_Final
 10
699726.187
 20
4557002.02
 30
0.0
  0
VERTEX
  8
Data_PATH_09007_1_Final
 10
699687.315
 20
4557043.95
 30
0.0
  0
VERTEX
  8
Data_PATH_09007_1_Final
 10
699646.57
 20
4557084.51
 30
0.0
  0
VERTEX
  8
Data_PATH_09007_1_Final
 10
699563.33
 20
4557160.81
 30
0.0
  0
VERTEX
  8
Data_PATH_09007_1_Final
 10
699521.948
 20
4557199.82
 30
0.0
  0
VERTEX
  8
Data_PATH_09007_1_Final
 10
699321.259
 20
4557395.71
 30
0.0
  0
VERTEX
  8
Data_PATH_09007_1_Final
 10
699281.21
 20
4557436.29
 30
0.0
  0
VERTEX
  8
Data_PATH_09007_1_Final
 10
699242.625
 20
4557477.75
 30
0.0
  0
VERTEX
  8
Data_PATH_09007_1_Final
 10
699129.345
 20
4557605.51
 30
0.0
  0
VERTEX
  8
Data_PATH_09007_1_Final
 10
698974.085
 20
4557775.7
 30
0.0
  0
VERTEX
  8
Data_PATH_09007_1_Final
 10
698895.233
 20
4557863.68
 30
0.0
  0
VERTEX
  8
Data_PATH_09007_1_Final
 10
698854.478
 20
4557907.93
 30
0.0
  0
VERTEX
  8
Data_PATH_09007_1_Final
 10
698812.948
 20
4557950.91
 30
0.0
  0
VERTEX
  8
Data_PATH_09007_1_Final
 10
698728.193
 20
4558033.65
 30
0.0
  0
VERTEX
  8
Data_PATH_09007_1_Final
 10
698646.721
 20
4558115.81
 30
0.0
  0
VERTEX
  8
Data_PATH_09007_1_Final
 10
698564.334
 20
4558201.38
 30
0.0
  0
VERTEX
  8
Data_PATH_09007_1_Final
 10
698482.427
 20
4558288.03
 30
0.0
  0
VERTEX
  8
Data_PATH_09007_1_Final
 10
698404.053
 20
4558373.03
 30
0.0
  0
VERTEX
  8
Data_PATH_09007_1_Final
 10
698071.563
 20
4558728.57
 30
0.0
  0
VERTEX
  8
Data_PATH_09007_1_Final
 10
697988.053
 20
4558816.7
 30
0.0
  0
VERTEX
  8
Data_PATH_09007_1_Final
 10
697904.894
 20
4558905.89
 30
0.0
  0
VERTEX
  8
Data_PATH_09007_1_Final
 10
697862.991
 20
4558951.94
 30
0.0
  0
VERTEX
  8
Data_PATH_09007_1_Final
 10
697742.228
 20
4559090.41
 30
0.0
  0
VERTEX
  8
Data_PATH_09007_1_Final
 10
697701.406
 20
4559135.92
 30
0.0
  0
VERTEX
  8
Data_PATH_09007_1_Final
 10
697659.88
 20
4559180.68
 30
0.0
  0
VERTEX
  8
Data_PATH_09007_1_Final
 10
697577.114
 20
4559267.58
 30
0.0
  0
VERTEX
  8
Data_PATH_09007_1_Final
 10
697492.376
 20
4559352.42
 30
0.0
  0
VERTEX
  8
Data_PATH_09007_1_Final
 10
697447.955
 20
4559394.6
 30
0.0
  0
VERTEX
  8
Data_PATH_09007_1_Final
 10
697315.617
 20
4559514.83
 30
0.0
  0
VERTEX
  8
Data_PATH_09007_1_Final
 10
697231.015
 20
4559590.6
 30
0.0
  0
VERTEX
  8
Data_PATH_09007_1_Final
 10
697148.515
 20
4559666.25
 30
0.0
  0
VERTEX
  8
Data_PATH_09007_1_Final
 10
697066.543
 20
4559744.36
 30
0.0
  0
VERTEX
  8
Data_PATH_09007_1_Final
 10
696979.78
 20
4559824.12
 30
0.0
  0
VERTEX
  8
Data_PATH_09007_1_Final
 10
696937.845
 20
4559864.78
 30
0.0
  0
VERTEX
  8
Data_PATH_09007_1_Final
 10
696898.538
 20
4559907.3
 30
0.0
  0
VERTEX
  8
Data_PATH_09007_1_Final
 10
696821.448
 20
4559996.3
 30
0.0
  0
VERTEX
  8
Data_PATH_09007_1_Final
 10
696702.478
 20
4560130.71
 30
0.0
  0
VERTEX
  8
Data_PATH_09007_1_Final
 10
696587.1
 20
4560270.05
 30
0.0
  0
VERTEX
  8
Data_PATH_09007_1_Final
 10
696548.91
 20
4560314.58
 30
0.0
  0
VERTEX
  8
Data_PATH_09007_1_Final
 10
696509.906
 20
4560357.89
 30
0.0
  0
VERTEX
  8
Data_PATH_09007_1_Final
 10
696430.675
 20
4560443.47
 30
0.0
  0
VERTEX
  8
Data_PATH_09007_1_Final
 10
696276.653
 20
4560612.08
 30
0.0
  0
VERTEX
  8
Data_PATH_09007_1_Final
 10
696237.49
 20
4560652.3
 30
0.0
  0
VERTEX
  8
Data_PATH_09007_1_Final
 10
695943.766
 20
4560937.15
 30
0.0
  0
VERTEX
  8
Data_PATH_09007_1_Final
 10
695858.939
 20
4561017.38
 30
0.0
  0
VERTEX
  8
Data_PATH_09007_1_Final
 10
695818.225
 20
4561059.01
 30
0.0
  0
VERTEX
  8
Data_PATH_09007_1_Final
 10
695779.061
 20
4561104.06
 30
0.0
  0
VERTEX
  8
Data_PATH_09007_1_Final
 10
695741.638
 20
4561151.52
 30
0.0
  0
VERTEX
  8
Data_PATH_09007_1_Final
 10
695669.573
 20
4561245.62
 30
0.0
  0
VERTEX
  8
Data_PATH_09007_1_Final
 10
695633.188
 20
4561290.38
 30
0.0
  0
VERTEX
  8
Data_PATH_09007_1_Final
 10
695557.301
 20
4561379.33
 30
0.0
  0
VERTEX
  8
Data_PATH_09007_1_Final
 10
695516.576
 20
4561423.93
 30
0.0
  0
VERTEX
  8
Data_PATH_09007_1_Final
 10
695474.595
 20
4561466.25
 30
0.0
  0
VERTEX
  8
Data_PATH_09007_1_Final
 10
695431.417
 20
4561505.31
 30
0.0
  0
VERTEX
  8
Data_PATH_09007_1_Final
 10
695342.232
 20
4561581.6
 30
0.0
  0
VERTEX
  8
Data_PATH_09007_1_Final
 10
695298.012
 20
4561624.59
 30
0.0
  0
VERTEX
  8
Data_PATH_09007_1_Final
 10
695255.711
 20
4561670.82
 30
0.0
  0
VERTEX
  8
Data_PATH_09007_1_Final
 10
695176.063
 20
4561763.78
 30
0.0
  0
VERTEX
  8
Data_PATH_09007_1_Final
 10
695134.754
 20
4561806.8
 30
0.0
  0
VERTEX
  8
Data_PATH_09007_1_Final
 10
695043.34
 20
4561891.03
 30
0.0
  0
VERTEX
  8
Data_PATH_09007_1_Final
 10
695020.185
 20
4561913.22
 30
0.0
  0
VERTEX
  8
Data_PATH_09007_1_Final
 10
694997.831
 20
4561936.24
 30
0.0
  0
VERTEX
  8
Data_PATH_09007_1_Final
 10
694955.235
 20
4561983.8
 30
0.0
  0
VERTEX
  8
Data_PATH_09007_1_Final
 10
694914.396
 20
4562032.17
 30
0.0
  0
VERTEX
  8
Data_PATH_09007_1_Final
 10
694873.229
 20
4562078.32
 30
0.0
  0
VERTEX
  8
Data_PATH_09007_1_Final
 10
694831.519
 20
4562121.9
 30
0.0
  0
VERTEX
  8
Data_PATH_09007_1_Final
 10
694788.243
 20
4562165.4
 30
0.0
  0
VERTEX
  8
Data_PATH_09007_1_Final
 10
694744.362
 20
4562211.81
 30
0.0
  0
VERTEX
  8
Data_PATH_09007_1_Final
 10
694703.698
 20
4562259.65
 30
0.0
  0
VERTEX
  8
Data_PATH_09007_1_Final
 10
694666.708
 20
4562306.47
 30
0.0
  0
VERTEX
  8
Data_PATH_09007_1_Final
 10
694630.059
 20
4562350.29
 30
0.0
  0
VERTEX
  8
Data_PATH_09007_1_Final
 10
694611.515
 20
4562370.83
 30
0.0
  0
VERTEX
  8
Data_PATH_09007_1_Final
 10
694592.078
 20
4562390.39
 30
0.0
  0
VERTEX
  8
Data_PATH_09007_1_Final
 10
694550.928
 20
4562428.07
 30
0.0
  0
VERTEX
  8
Data_PATH_09007_1_Final
 10
694464.059
 20
4562502.1
 30
0.0
  0
VERTEX
  8
Data_PATH_09007_1_Final
 10
694423.618
 20
4562540.24
 30
0.0
  0
VERTEX
  8
Data_PATH_09007_1_Final
 10
694309.845
 20
4562661.31
 30
0.0
  0
VERTEX
  8
Data_PATH_09007_1_Final
 10
694214.71
 20
4562756.26
 30
0.0
  0
SEQEND
  8
Data_PATH_09007_1_Final
  0
TEXT
  8
Data_PATH_09007_1_Final
 10
694591.02
 20
4562753.28
 30
0.0
  1
L10100 E
 11
694591.02
 21
4562753.28
 31
0.0
 40
59.9999929
 41
1
 50
-46.285
 51
0
 71
0
 62
7
  7
ARIAL
 72
2
 73
0
  0
TEXT
  8
Data_PATH_09007_1_Final
 10
702004.788
 20
4554999.16
 30
0.0
  1
L10100 E
 11
702004.788
 21
4554999.16
 31
0.0
 40
59.9999929
 41
1
 50
-46.285
 51
0
 71
0
 62
7
  7
ARIAL
  0
POLYLINE
  8
Data_PATH_09007_1_Final
 66
1
 40
3.59999957
 41
3.59999957
 62
7
 10
694645.875
 20
4562739.32
 30
0.0
  0
VERTEX
  8
Data_PATH_09007_1_Final
 10
694645.875
 20
4562739.32
 30
0.0
  0
VERTEX
  8
Data_PATH_09007_1_Final
 10
694682.558
 20
4562700.6
 30
0.0
  0
VERTEX
  8
Data_PATH_09007_1_Final
 10
694715.327
 20
4562661.43
 30
0.0
  0
VERTEX
  8
Data_PATH_09007_1_Final
 10
694773.658
 20
4562582.68
 30
0.0
  0
VERTEX
  8
Data_PATH_09007_1_Final
 10
694805.192
 20
4562542.72
 30
0.0
  0
VERTEX
  8
Data_PATH_09007_1_Final
 10
694841.463
 20
4562503.18
 30
0.0
  0
VERTEX
  8
Data_PATH_09007_1_Final
 10
694880.948
 20
4562464.71
 30
0.0
  0
VERTEX
  8
Data_PATH_09007_1_Final
 10
694920.496
 20
4562427.86
 30
0.0
  0
VERTEX
  8
Data_PATH_09007_1_Final
 10
694956.792
 20
4562392.37
 30
0.0
  0
VERTEX
  8
Data_PATH_09007_1_Final
 10
694989.799
 20
4562356.87
 30
0.0
  0
VERTEX
  8
Data_PATH_09007_1_Final
 10
695054.995
 20
4562282.68
 30
0.0
  0
VERTEX
  8
Data_PATH_09007_1_Final
 10
695091.55
 20
4562244.73
 30
0.0
  0
VERTEX
  8
Data_PATH_09007_1_Final
 10
695129.738
 20
4562207.53
 30
0.0
  0
VERTEX
  8
Data_PATH_09007_1_Final
 10
695203.966
 20
4562135.55
 30
0.0
  0
VERTEX
  8
Data_PATH_09007_1_Final
 10
695238.854
 20
4562099.03
 30
0.0
  0
VERTEX
  8
Data_PATH_09007_1_Final
 10
695350.062
 20
4561978.97
 30
0.0
  0
VERTEX
  8
Data_PATH_09007_1_Final
 10
695429.001
 20
4561900.11
 30
0.0
  0
VERTEX
  8
Data_PATH_09007_1_Final
 10
695465.247
 20
4561862.21
 30
0.0
  0
VERTEX
  8
Data_PATH_09007_1_Final
 10
695499.401
 20
4561822.36
 30
0.0
  0
VERTEX
  8
Data_PATH_09007_1_Final
 10
695568.038
 20
4561737.19
 30
0.0
  0
VERTEX
  8
Data_PATH_09007_1_Final
 10
695604.548
 20
4561695.01
 30
0.0
  0
VERTEX
  8
Data_PATH_09007_1_Final
 10
695642.49
 20
4561654.73
 30
0.0
  0
VERTEX
  8
Data_PATH_09007_1_Final
 10
695719.023
 20
4561576.34
 30
0.0
  0
VERTEX
  8
Data_PATH_09007_1_Final
 10
695795.229
 20
4561494.57
 30
0.0
  0
VERTEX
  8
Data_PATH_09007_1_Final
 10
695815
 20
4561474.27
 30
0.0
  0
VERTEX
  8
Data_PATH_09007_1_Final
 10
695835.421
 20
4561454.73
 30
0.0
  0
VERTEX
  8
Data_PATH_09007_1_Final
 10
695877.736
 20
4561417.53
 30
0.0
  0
VERTEX
  8
Data_PATH_09007_1_Final
 10
695965.352
 20
4561345.73
 30
0.0
  0
VERTEX
  8
Data_PATH_09007_1_Final
 10
696007.843
 20
4561307.21
 30
0.0
  0
VERTEX
  8
Data_PATH_09007_1_Final
 10
696047.473
 20
4561267.63
 30
0.0
  0
VERTEX
  8
Data_PATH_09007_1_Final
 10
696125.309
 20
4561187.41
 30
0.0
  0
VERTEX
  8
Data_PATH_09007_1_Final
 10
696203.998
 20
4561110.37
 30
0.0
  0
VERTEX
  8
Data_PATH_09007_1_Final
 10
696240.388
 20
4561072.57
 30
0.0
  0
VERTEX
  8
Data_PATH_09007_1_Final
 10
696346.613
 20
4560950.74
 30
0.0
  0
VERTEX
  8
Data_PATH_09007_1_Final
 10
696383.521
 20
4560910.95
 30
0.0
  0
VERTEX
  8
Data_PATH_09007_1_Final
 10
696459.152
 20
4560834.43
 30
0.0
  0
VERTEX
  8
Data_PATH_09007_1_Final
 10
696496.093
 20
4560795.02
 30
0.0
  0
VERTEX
  8
Data_PATH_09007_1_Final
 10
696601.93
 20
4560673.14
 30
0.0
  0
VERTEX
  8
Data_PATH_09007_1_Final
 10
696672.78
 20
4560595.8
 30
0.0
  0
VERTEX
  8
Data_PATH_09007_1_Final
 10
696744.646
 20
4560519.45
 30
0.0
  0
VERTEX
  8
Data_PATH_09007_1_Final
 10
696815.274
 20
4560441.26
 30
0.0
  0
VERTEX
  8
Data_PATH_09007_1_Final
 10
696886.695
 20
4560364.5
 30
0.0
  0
VERTEX
  8
Data_PATH_09007_1_Final
 10
697036.205
 20
4560211.56
 30
0.0
  0
VERTEX
  8
Data_PATH_09007_1_Final
 10
697150.042
 20
4560091.82
 30
0.0
  0
VERTEX
  8
Data_PATH_09007_1_Final
 10
697268.528
 20
4559975.8
 30
0.0
  0
VERTEX
  8
Data_PATH_09007_1_Final
 10
697309.006
 20
4559935.31
 30
0.0
  0
VERTEX
  8
Data_PATH_09007_1_Final
 10
697348.545
 20
4559893.75
 30
0.0
  0
VERTEX
  8
Data_PATH_09007_1_Final
 10
697424.271
 20
4559811.88
 30
0.0
  0
VERTEX
  8
Data_PATH_09007_1_Final
 10
697540.054
 20
4559694.49
 30
0.0
  0
VERTEX
  8
Data_PATH_09007_1_Final
 10
697578.895
 20
4559653.22
 30
0.0
  0
VERTEX
  8
Data_PATH_09007_1_Final
 10
697654.717
 20
4559568.69
 30
0.0
  0
VERTEX
  8
Data_PATH_09007_1_Final
 10
697691.912
 20
4559529.34
 30
0.0
  0
VERTEX
  8
Data_PATH_09007_1_Final
 10
697768.263
 20
4559454.65
 30
0.0
  0
VERTEX
  8
Data_PATH_09007_1_Final
 10
697805.995
 20
4559415.95
 30
0.0
  0
VERTEX
  8
Data_PATH_09007_1_Final
 10
697876.792
 20
4559334.1
 30
0.0
  0
VERTEX
  8
Data_PATH_09007_1_Final
 10
697912.269
 20
4559295.03
 30
0.0
  0
VERTEX
  8
Data_PATH_09007_1_Final
 10
697948.885
 20
4559258.37
 30
0.0
  0
VERTEX
  8
Data_PATH_09007_1_Final
 10
698026.249
 20
4559185.47
 30
0.0
  0
VERTEX
  8
Data_PATH_09007_1_Final
 10
698064.124
 20
4559146.87
 30
0.0
  0
VERTEX
  8
Data_PATH_09007_1_Final
 10
698168.432
 20
4559034.89
 30
0.0
  0
VERTEX
  8
Data_PATH_09007_1_Final
 10
698244.734
 20
4558959.27
 30
0.0
  0
VERTEX
  8
Data_PATH_09007_1_Final
 10
698282.113
 20
4558920.08
 30
0.0
  0
VERTEX
  8
Data_PATH_09007_1_Final
 10
698316.719
 20
4558881.18
 30
0.0
  0
VERTEX
  8
Data_PATH_09007_1_Final
 10
698384.521
 20
4558799.28
 30
0.0
  0
VERTEX
  8
Data_PATH_09007_1_Final
 10
698419.859
 20
4558757.85
 30
0.0
  0
VERTEX
  8
Data_PATH_09007_1_Final
 10
698526.537
 20
4558640.9
 30
0.0
  0
VERTEX
  8
Data_PATH_09007_1_Final
 10
698634.123
 20
4558515.65
 30
0.0
  0
VERTEX
  8
Data_PATH_09007_1_Final
 10
698669.8
 20
4558477.42
 30
0.0
  0
VERTEX
  8
Data_PATH_09007_1_Final
 10
698822.852
 20
4558326.65
 30
0.0
  0
VERTEX
  8
Data_PATH_09007_1_Final
 10
698894.842
 20
4558253.7
 30
0.0
  0
VERTEX
  8
Data_PATH_09007_1_Final
 10
698931.179
 20
4558218.83
 30
0.0
  0
VERTEX
  8
Data_PATH_09007_1_Final
 10
699007.92
 20
4558148.53
 30
0.0
  0
VERTEX
  8
Data_PATH_09007_1_Final
 10
699046.485
 20
4558112.03
 30
0.0
  0
VERTEX
  8
Data_PATH_09007_1_Final
 10
699083.114
 20
4558075.25
 30
0.0
  0
VERTEX
  8
Data_PATH_09007_1_Final
 10
699154.725
 20
4558000.55
 30
0.0
  0
VERTEX
  8
Data_PATH_09007_1_Final
 10
699273.1
 20
4557886
 30
0.0
  0
VERTEX
  8
Data_PATH_09007_1_Final
 10
699310.446
 20
4557848.08
 30
0.0
  0
VERTEX
  8
Data_PATH_09007_1_Final
 10
699346.021
 20
4557809.38
 30
0.0
  0
VERTEX
  8
Data_PATH_09007_1_Final
 10
699417.4
 20
4557728.62
 30
0.0
  0
VERTEX
  8
Data_PATH_09007_1_Final
 10
699494.5
 20
4557645.15
 30
0.0
  0
VERTEX
  8
Data_PATH_09007_1_Final
 10
699568.722
 20
4557562.06
 30
0.0
  0
VERTEX
  8
Data_PATH_09007_1_Final
 10
699639.651
 20
4557478.42
 30
0.0
  0
VERTEX
  8
Data_PATH_09007_1_Final
 10
699677.72
 20
4557435.29
 30
0.0
  0
VERTEX
  8
Data_PATH_09007_1_Final
 10
699717.006
 20
4557392.77
 30
0.0
  0
VERTEX
  8
Data_PATH_09007_1_Final
 10
699873.449
 20
4557232.62
 30
0.0
  0
VERTEX
  8
Data_PATH_09007_1_Final
 10
700028.179
 20
4557071.47
 30
0.0
  0
VERTEX
  8
Data_PATH_09007_1_Final
 10
700105.452
 20
4556989.75
 30
0.0
  0
VERTEX
  8
Data_PATH_09007_1_Final
 10
700268.377
 20
4556828.71
 30
0.0
  0
VERTEX
  8
Data_PATH_09007_1_Final
 10
700347.705
 20
4556748.7
 30
0.0
  0
VERTEX
  8
Data_PATH_09007_1_Final
 10
700470.515
 20
4556633.41
 30
0.0
  0
VERTEX
  8
Data_PATH_09007_1_Final
 10
700489.542
 20
4556614.02
 30
0.0
  0
VERTEX
  8
Data_PATH_09007_1_Final
 10
700507.86
 20
4556593.98
 30
0.0
  0
VERTEX
  8
Data_PATH_09007_1_Final
 10
700525.602
 20
4556573.03
 30
0.0
  0
VERTEX
  8
Data_PATH_09007_1_Final
 10
700542.491
 20
4556550.88
 30
0.0
  0
VERTEX
  8
Data_PATH_09007_1_Final
 10
700575.101
 20
4556504.05
 30
0.0
  0
VERTEX
  8
Data_PATH_09007_1_Final
 10
700606.907
 20
4556456.47
 30
0.0
  0
VERTEX
  8
Data_PATH_09007_1_Final
 10
700639.412
 20
4556411.47
 30
0.0
  0
VERTEX
  8
Data_PATH_09007_1_Final
 10
700656.689
 20
4556390.15
 30
0.0
  0
VERTEX
  8
Data_PATH_09007_1_Final
 10
700674.849
 20
4556369.63
 30
0.0
  0
VERTEX
  8
Data_PATH_09007_1_Final
 10
700693.988
 20
4556349.88
 30
0.0
  0
VERTEX
  8
Data_PATH_09007_1_Final
 10
700714.473
 20
4556330.94
 30
0.0
  0
VERTEX
  8
Data_PATH_09007_1_Final
 10
700757.331
 20
4556294.46
 30
0.0
  0
VERTEX
  8
Data_PATH_09007_1_Final
 10
700801.547
 20
4556258.16
 30
0.0
  0
VERTEX
  8
Data_PATH_09007_1_Final
 10
700844.337
 20
4556220.24
 30
0.0
  0
VERTEX
  8
Data_PATH_09007_1_Final
 10
700883.17
 20
4556181.93
 30
0.0
  0
VERTEX
  8
Data_PATH_09007_1_Final
 10
700955.689
 20
4556103.51
 30
0.0
  0
VERTEX
  8
Data_PATH_09007_1_Final
 10
700994.795
 20
4556064.48
 30
0.0
  0
VERTEX
  8
Data_PATH_09007_1_Final
 10
701078.294
 20
4555987.87
 30
0.0
  0
VERTEX
  8
Data_PATH_09007_1_Final
 10
701119.287
 20
4555947.67
 30
0.0
  0
VERTEX
  8
Data_PATH_09007_1_Final
 10
701157.921
 20
4555905.95
 30
0.0
  0
VERTEX
  8
Data_PATH_09007_1_Final
 10
701234.032
 20
4555819.18
 30
0.0
  0
VERTEX
  8
Data_PATH_09007_1_Final
 10
701274.817
 20
4555775.67
 30
0.0
  0
VERTEX
  8
Data_PATH_09007_1_Final
 10
701357.778
 20
4555692.77
 30
0.0
  0
VERTEX
  8
Data_PATH_09007_1_Final
 10
701397.528
 20
4555651.35
 30
0.0
  0
VERTEX
  8
Data_PATH_09007_1_Final
 10
701434.24
 20
4555610.26
 30
0.0
  0
VERTEX
  8
Data_PATH_09007_1_Final
 10
701504.638
 20
4555528.25
 30
0.0
  0
VERTEX
  8
Data_PATH_09007_1_Final
 10
701540.056
 20
4555489.23
 30
0.0
  0
VERTEX
  8
Data_PATH_09007_1_Final
 10
701577.326
 20
4555451.4
 30
0.0
  0
VERTEX
  8
Data_PATH_09007_1_Final
 10
701655.388
 20
4555376.22
 30
0.0
  0
VERTEX
  8
Data_PATH_09007_1_Final
 10
701769.406
 20
4555261.1
 30
0.0
  0
VERTEX
  8
Data_PATH_09007_1_Final
 10
701809.443
 20
4555224.07
 30
0.0
  0
VERTEX
  8
Data_PATH_09007_1_Final
 10
701890.914
 20
4555154.64
 30
0.0
  0
VERTEX
  8
Data_PATH_09007_1_Final
 10
701931.192
 20
4555118.13
 30
0.0
  0
VERTEX
  8
Data_PATH_09007_1_Final
 10
701971.245
 20
4555078.08
 30
0.0
  0
VERTEX
  8
Data_PATH_09007_1_Final
 10
701993.3
 20
4555054.59
 30
0.0
  0
SEQEND
  8
Data_PATH_09007_1_Final
  0
TEXT
  8
Data_PATH_09007_1_Final
 10
694895.986
 20
4562819.34
 30
0.0
  1
L10110 E
 11
694895.986
 21
4562819.34
 31
0.0
 40
59.9999929
 41
1
 50
-46.196
 51
0
 71
0
 62
7
  7
ARIAL
 72
2
 73
0
  0
TEXT
  8
Data_PATH_09007_1_Final
 10
702155.488
 20
4555250.27
 30
0.0
  1
L10110 E
 11
702155.488
 21
4555250.27
 31
0.0
 40
59.9999929
 41
1
 50
-46.196
 51
0
 71
0
 62
7
  7
ARIAL
  0
POLYLINE
  8
Data_PATH_09007_1_Final
 66
1
 40
3.59999957
 41
3.59999957
 62
7
 10
702143.914
 20
4555305.68
 30
0.0
  0
VERTEX
  8
Data_PATH_09007_1_Final
 10
702143.914
 20
4555305.68
 30
0.0
  0
VERTEX
  8
Data_PATH_09007_1_Final
 10
702056.916
 20
4555385.57
 30
0.0
  0
VERTEX
  8
Data_PATH_09007_1_Final
 10
702035.584
 20
4555406.27
 30
0.0
  0
VERTEX
  8
Data_PATH_09007_1_Final
 10
702015.143
 20
4555427.6
 30
0.0
  0
VERTEX
  8
Data_PATH_09007_1_Final
 10
701937.641
 20
4555514.81
 30
0.0
  0
VERTEX
  8
Data_PATH_09007_1_Final
 10
701897.679
 20
4555556.52
 30
0.0
  0
VERTEX
  8
Data_PATH_09007_1_Final
 10
701854.678
 20
4555595.99
 30
0.0
  0
VERTEX
  8
Data_PATH_09007_1_Final
 10
701763.05
 20
4555673.3
 30
0.0
  0
VERTEX
  8
Data_PATH_09007_1_Final
 10
701718.817
 20
4555713.97
 30
0.0
  0
VERTEX
  8
Data_PATH_09007_1_Final
 10
701677.719
 20
4555755.81
 30
0.0
  0
VERTEX
  8
Data_PATH_09007_1_Final
 10
701597.09
 20
4555843.34
 30
0.0
  0
VERTEX
  8
Data_PATH_09007_1_Final
 10
701514.653
 20
4555933.37
 30
0.0
  0
VERTEX
  8
Data_PATH_09007_1_Final
 10
701475.228
 20
4555978.29
 30
0.0
  0
VERTEX
  8
Data_PATH_09007_1_Final
 10
701360.638
 20
4556116.07
 30
0.0
  0
VERTEX
  8
Data_PATH_09007_1_Final
 10
701320.541
 20
4556162.22
 30
0.0
  0
VERTEX
  8
Data_PATH_09007_1_Final
 10
701278.17
 20
4556208.05
 30
0.0
  0
VERTEX
  8
Data_PATH_09007_1_Final
 10
701103.038
 20
4556386.38
 30
0.0
  0
VERTEX
  8
Data_PATH_09007_1_Final
 10
701017.298
 20
4556472.69
 30
0.0
  0
VERTEX
  8
Data_PATH_09007_1_Final
 10
700932.286
 20
4556556.9
 30
0.0
  0
VERTEX
  8
Data_PATH_09007_1_Final
 10
700848.394
 20
4556641.79
 30
0.0
  0
VERTEX
  8
Data_PATH_09007_1_Final
 10
700807.672
 20
4556685.21
 30
0.0
  0
VERTEX
  8
Data_PATH_09007_1_Final
 10
700687.758
 20
4556819.78
 30
0.0
  0
VERTEX
  8
Data_PATH_09007_1_Final
 10
700646.514
 20
4556862.4
 30
0.0
  0
VERTEX
  8
Data_PATH_09007_1_Final
 10
700519.386
 20
4556987
 30
0.0
  0
VERTEX
  8
Data_PATH_09007_1_Final
 10
700477.042
 20
4557029.85
 30
0.0
  0
VERTEX
  8
Data_PATH_09007_1_Final
 10
700435.583
 20
4557073.33
 30
0.0
  0
VERTEX
  8
Data_PATH_09007_1_Final
 10
700394.616
 20
4557118.1
 30
0.0
  0
VERTEX
  8
Data_PATH_09007_1_Final
 10
700315.545
 20
4557207.46
 30
0.0
  0
VERTEX
  8
Data_PATH_09007_1_Final
 10
700275.909
 20
4557250.05
 30
0.0
  0
VERTEX
  8
Data_PATH_09007_1_Final
 10
700235.544
 20
4557290.22
 30
0.0
  0
VERTEX
  8
Data_PATH_09007_1_Final
 10
700151.453
 20
4557368.93
 30
0.0
  0
VERTEX
  8
Data_PATH_09007_1_Final
 10
700109.34
 20
4557409.42
 30
0.0
  0
VERTEX
  8
Data_PATH_09007_1_Final
 10
700028.251
 20
4557491.26
 30
0.0
  0
VERTEX
  8
Data_PATH_09007_1_Final
 10
699988.057
 20
4557530.53
 30
0.0
  0
VERTEX
  8
Data_PATH_09007_1_Final
 10
699947.275
 20
4557568.95
 30
0.0
  0
VERTEX
  8
Data_PATH_09007_1_Final
 10
699906.667
 20
4557608.8
 30
0.0
  0
VERTEX
  8
Data_PATH_09007_1_Final
 10
699867.535
 20
4557651.29
 30
0.0
  0
VERTEX
  8
Data_PATH_09007_1_Final
 10
699831.378
 20
4557695.39
 30
0.0
  0
VERTEX
  8
Data_PATH_09007_1_Final
 10
699795.741
 20
4557740.49
 30
0.0
  0
VERTEX
  8
Data_PATH_09007_1_Final
 10
699759.165
 20
4557784.69
 30
0.0
  0
VERTEX
  8
Data_PATH_09007_1_Final
 10
699740.034
 20
4557805.65
 30
0.0
  0
VERTEX
  8
Data_PATH_09007_1_Final
 10
699720.157
 20
4557825.99
 30
0.0
  0
VERTEX
  8
Data_PATH_09007_1_Final
 10
699635.082
 20
4557905.24
 30
0.0
  0
VERTEX
  8
Data_PATH_09007_1_Final
 10
699592.996
 20
4557946.38
 30
0.0
  0
VERTEX
  8
Data_PATH_09007_1_Final
 10
699513.601
 20
4558030.21
 30
0.0
  0
VERTEX
  8
Data_PATH_09007_1_Final
 10
699472.799
 20
4558070.95
 30
0.0
  0
VERTEX
  8
Data_PATH_09007_1_Final
 10
699386.183
 20
4558151.01
 30
0.0
  0
VERTEX
  8
Data_PATH_09007_1_Final
 10
699343.104
 20
4558192.43
 30
0.0
  0
VERTEX
  8
Data_PATH_09007_1_Final
 10
699258.973
 20
4558279.35
 30
0.0
  0
VERTEX
  8
Data_PATH_09007_1_Final
 10
699216.076
 20
4558321.73
 30
0.0
  0
VERTEX
  8
Data_PATH_09007_1_Final
 10
699171.757
 20
4558363.22
 30
0.0
  0
VERTEX
  8
Data_PATH_09007_1_Final
 10
699126.718
 20
4558405.76
 30
0.0
  0
VERTEX
  8
Data_PATH_09007_1_Final
 10
699083.001
 20
4558451.06
 30
0.0
  0
VERTEX
  8
Data_PATH_09007_1_Final
 10
699041.917
 20
4558498.48
 30
0.0
  0
VERTEX
  8
Data_PATH_09007_1_Final
 10
699003.145
 20
4558546.3
 30
0.0
  0
VERTEX
  8
Data_PATH_09007_1_Final
 10
698963.807
 20
4558592.91
 30
0.0
  0
VERTEX
  8
Data_PATH_09007_1_Final
 10
698922.662
 20
4558637.35
 30
0.0
  0
VERTEX
  8
Data_PATH_09007_1_Final
 10
698834.62
 20
4558726.28
 30
0.0
  0
VERTEX
  8
Data_PATH_09007_1_Final
 10
698791.987
 20
4558774.51
 30
0.0
  0
VERTEX
  8
Data_PATH_09007_1_Final
 10
698752.563
 20
4558823.66
 30
0.0
  0
VERTEX
  8
Data_PATH_09007_1_Final
 10
698714.478
 20
4558873.12
 30
0.0
  0
VERTEX
  8
Data_PATH_09007_1_Final
 10
698675.229
 20
4558920.22
 30
0.0
  0
VERTEX
  8
Data_PATH_09007_1_Final
 10
698632.668
 20
4558965.2
 30
0.0
  0
VERTEX
  8
Data_PATH_09007_1_Final
 10
698543.233
 20
4559053.36
 30
0.0
  0
VERTEX
  8
Data_PATH_09007_1_Final
 10
698500.434
 20
4559098.83
 30
0.0
  0
VERTEX
  8
Data_PATH_09007_1_Final
 10
698459.03
 20
4559144.63
 30
0.0
  0
VERTEX
  8
Data_PATH_09007_1_Final
 10
698416.784
 20
4559189.45
 30
0.0
  0
VERTEX
  8
Data_PATH_09007_1_Final
 10
698371.962
 20
4559232.31
 30
0.0
  0
VERTEX
  8
Data_PATH_09007_1_Final
 10
698276.831
 20
4559317.4
 30
0.0
  0
VERTEX
  8
Data_PATH_09007_1_Final
 10
698230.371
 20
4559362.27
 30
0.0
  0
VERTEX
  8
Data_PATH_09007_1_Final
 10
698142.056
 20
4559453.91
 30
0.0
  0
VERTEX
  8
Data_PATH_09007_1_Final
 10
698096.623
 20
4559498.03
 30
0.0
  0
VERTEX
  8
Data_PATH_09007_1_Final
 10
698048.349
 20
4559540.62
 30
0.0
  0
VERTEX
  8
Data_PATH_09007_1_Final
 10
697999.591
 20
4559583.21
 30
0.0
  0
VERTEX
  8
Data_PATH_09007_1_Final
 10
697952.779
 20
4559626.46
 30
0.0
  0
VERTEX
  8
Data_PATH_09007_1_Final
 10
697865.531
 20
4559713.71
 30
0.0
  0
VERTEX
  8
Data_PATH_09007_1_Final
 10
697822.361
 20
4559758.32
 30
0.0
  0
VERTEX
  8
Data_PATH_09007_1_Final
 10
697780.49
 20
4559803.96
 30
0.0
  0
VERTEX
  8
Data_PATH_09007_1_Final
 10
697760.623
 20
4559827.31
 30
0.0
  0
VERTEX
  8
Data_PATH_09007_1_Final
 10
697741.648
 20
4559851.29
 30
0.0
  0
VERTEX
  8
Data_PATH_09007_1_Final
 10
697706.36
 20
4559902.02
 30
0.0
  0
VERTEX
  8
Data_PATH_09007_1_Final
 10
697655.672
 20
4559980.53
 30
0.0
  0
VERTEX
  8
Data_PATH_09007_1_Final
 10
697638.333
 20
4560005.31
 30
0.0
  0
VERTEX
  8
Data_PATH_09007_1_Final
 10
697620.326
 20
4560028.91
 30
0.0
  0
VERTEX
  8
Data_PATH_09007_1_Final
 10
697601.559
 20
4560051.31
 30
0.0
  0
VERTEX
  8
Data_PATH_09007_1_Final
 10
697581.951
 20
4560072.6
 30
0.0
  0
VERTEX
  8
Data_PATH_09007_1_Final
 10
697561.431
 20
4560092.97
 30
0.0
  0
VERTEX
  8
Data_PATH_09007_1_Final
 10
697476.056
 20
4560172.92
 30
0.0
  0
VERTEX
  8
Data_PATH_09007_1_Final
 10
697434.188
 20
4560215.08
 30
0.0
  0
VERTEX
  8
Data_PATH_09007_1_Final
 10
697351.329
 20
4560300.35
 30
0.0
  0
VERTEX
  8
Data_PATH_09007_1_Final
 10
697221.404
 20
4560422.5
 30
0.0
  0
VERTEX
  8
Data_PATH_09007_1_Final
 10
697179.354
 20
4560465.32
 30
0.0
  0
VERTEX
  8
Data_PATH_09007_1_Final
 10
697137.775
 20
4560509.79
 30
0.0
  0
VERTEX
  8
Data_PATH_09007_1_Final
 10
697094.634
 20
4560554.38
 30
0.0
  0
VERTEX
  8
Data_PATH_09007_1_Final
 10
697049.657
 20
4560597.49
 30
0.0
  0
VERTEX
  8
Data_PATH_09007_1_Final
 10
697003.888
 20
4560639.06
 30
0.0
  0
VERTEX
  8
Data_PATH_09007_1_Final
 10
696959.209
 20
4560680.98
 30
0.0
  0
VERTEX
  8
Data_PATH_09007_1_Final
 10
696916.552
 20
4560724.59
 30
0.0
  0
VERTEX
  8
Data_PATH_09007_1_Final
 10
696834.516
 20
4560815.91
 30
0.0
  0
VERTEX
  8
Data_PATH_09007_1_Final
 10
696792.287
 20
4560860.24
 30
0.0
  0
VERTEX
  8
Data_PATH_09007_1_Final
 10
696704.014
 20
4560945.89
 30
0.0
  0
VERTEX
  8
Data_PATH_09007_1_Final
 10
696661.08
 20
4560989.73
 30
0.0
  0
VERTEX
  8
Data_PATH_09007_1_Final
 10
696619.591
 20
4561035.66
 30
0.0
  0
VERTEX
  8
Data_PATH_09007_1_Final
 10
696538.683
 20
4561130.45
 30
0.0
  0
VERTEX
  8
Data_PATH_09007_1_Final
 10
696497.673
 20
4561176.57
 30
0.0
  0
VERTEX
  8
Data_PATH_09007_1_Final
 10
696415.517
 20
4561267.04
 30
0.0
  0
VERTEX
  8
Data_PATH_09007_1_Final
 10
696298.482
 20
4561406.15
 30
0.0
  0
VERTEX
  8
Data_PATH_09007_1_Final
 10
696257.598
 20
4561451.58
 30
0.0
  0
VERTEX
  8
Data_PATH_09007_1_Final
 10
696215.318
 20
4561495.31
 30
0.0
  0
VERTEX
  8
Data_PATH_09007_1_Final
 10
696088.928
 20
4561619.42
 30
0.0
  0
VERTEX
  8
Data_PATH_09007_1_Final
 10
696045.367
 20
4561659.17
 30
0.0
  0
VERTEX
  8
Data_PATH_09007_1_Final
 10
695953.514
 20
4561738.27
 30
0.0
  0
VERTEX
  8
Data_PATH_09007_1_Final
 10
695910.501
 20
4561778.1
 30
0.0
  0
VERTEX
  8
Data_PATH_09007_1_Final
 10
695870.546
 20
4561818.77
 30
0.0
  0
VERTEX
  8
Data_PATH_09007_1_Final
 10
695792.072
 20
4561903.17
 30
0.0
  0
VERTEX
  8
Data_PATH_09007_1_Final
 10
695749.959
 20
4561944.87
 30
0.0
  0
VERTEX
  8
Data_PATH_09007_1_Final
 10
695705.863
 20
4561987.12
 30
0.0
  0
VERTEX
  8
Data_PATH_09007_1_Final
 10
695662.717
 20
4562030.21
 30
0.0
  0
VERTEX
  8
Data_PATH_09007_1_Final
 10
695540.777
 20
4562165.24
 30
0.0
  0
VERTEX
  8
Data_PATH_09007_1_Final
 10
695411.565
 20
4562299.63
 30
0.0
  0
VERTEX
  8
Data_PATH_09007_1_Final
 10
695287.406
 20
4562437.42
 30
0.0
  0
VERTEX
  8
Data_PATH_09007_1_Final
 10
695112.987
 20
4562621.43
 30
0.0
  0
VERTEX
  8
Data_PATH_09007_1_Final
 10
695027.11
 20
4562717.17
 30
0.0
  0
VERTEX
  8
Data_PATH_09007_1_Final
 10
694950.862
 20
4562805.47
 30
0.0
  0
SEQEND
  8
Data_PATH_09007_1_Final
  0
TEXT
  8
Data_PATH_09007_1_Final
 10
695310.567
 20
4562783
 30
0.0
  1
L10120 E
 11
695310.567
 21
4562783
 31
0.0
 40
59.9999929
 41
1
 50
-46.227
 51
0
 71
0
 62
7
  7
ARIAL
 72
2
 73
0
  0
TEXT
  8
Data_PATH_09007_1_Final
 10
702346.617
 20
4555438.92
 30
0.0
  1
L10120 E
 11
702346.617
 21
4555438.92
 31
0.0
 40
59.9999929
 41
1
 50
-46.227
 51
0
 71
0
 62
7
  7
ARIAL
  0
POLYLINE
  8
Data_PATH_09007_1_Final
 66
1
 40
3.59999957
 41
3.59999957
 62
7
 10
695365.436
 20
4562769.1
 30
0.0
  0
VERTEX
  8
Data_PATH_09007_1_Final
 10
695365.436
 20
4562769.1
 30
0.0
  0
VERTEX
  8
Data_PATH_09007_1_Final
 10
695402.361
 20
4562732.74
 30
0.0
  0
VERTEX
  8
Data_PATH_09007_1_Final
 10
695440.677
 20
4562696.99
 30
0.0
  0
VERTEX
  8
Data_PATH_09007_1_Final
 10
695477.916
 20
4562660.48
 30
0.0
  0
VERTEX
  8
Data_PATH_09007_1_Final
 10
695512.038
 20
4562623.58
 30
0.0
  0
VERTEX
  8
Data_PATH_09007_1_Final
 10
695576.359
 20
4562547.95
 30
0.0
  0
VERTEX
  8
Data_PATH_09007_1_Final
 10
695611.321
 20
4562509.79
 30
0.0
  0
VERTEX
  8
Data_PATH_09007_1_Final
 10
695648.612
 20
4562473.04
 30
0.0
  0
VERTEX
  8
Data_PATH_09007_1_Final
 10
695722.166
 20
4562404.71
 30
0.0
  0
VERTEX
  8
Data_PATH_09007_1_Final
 10
695757.916
 20
4562370.13
 30
0.0
  0
VERTEX
  8
Data_PATH_09007_1_Final
 10
695793.97
 20
4562333.56
 30
0.0
  0
VERTEX
  8
Data_PATH_09007_1_Final
 10
695865.269
 20
4562261.72
 30
0.0
  0
VERTEX
  8
Data_PATH_09007_1_Final
 10
695935.224
 20
4562193.57
 30
0.0
  0
VERTEX
  8
Data_PATH_09007_1_Final
 10
695970.409
 20
4562157.67
 30
0.0
  0
VERTEX
  8
Data_PATH_09007_1_Final
 10
696005.384
 20
4562119.6
 30
0.0
  0
VERTEX
  8
Data_PATH_09007_1_Final
 10
696074.752
 20
4562041.09
 30
0.0
  0
VERTEX
  8
Data_PATH_09007_1_Final
 10
696148.386
 20
4561961.28
 30
0.0
  0
VERTEX
  8
Data_PATH_09007_1_Final
 10
696185.078
 20
4561921.19
 30
0.0
  0
VERTEX
  8
Data_PATH_09007_1_Final
 10
696220.023
 20
4561881.59
 30
0.0
  0
VERTEX
  8
Data_PATH_09007_1_Final
 10
696289.305
 20
4561803.18
 30
0.0
  0
VERTEX
  8
Data_PATH_09007_1_Final
 10
696325.739
 20
4561764.9
 30
0.0
  0
VERTEX
  8
Data_PATH_09007_1_Final
 10
696437.736
 20
4561653.35
 30
0.0
  0
VERTEX
  8
Data_PATH_09007_1_Final
 10
696509.618
 20
4561575.25
 30
0.0
  0
VERTEX
  8
Data_PATH_09007_1_Final
 10
696546.411
 20
4561536.88
 30
0.0
  0
VERTEX
  8
Data_PATH_09007_1_Final
 10
696626.097
 20
4561461.76
 30
0.0
  0
VERTEX
  8
Data_PATH_09007_1_Final
 10
696666.098
 20
4561423.24
 30
0.0
  0
VERTEX
  8
Data_PATH_09007_1_Final
 10
696704.372
 20
4561383.78
 30
0.0
  0
VERTEX
  8
Data_PATH_09007_1_Final
 10
696776.257
 20
4561305.53
 30
0.0
  0
VERTEX
  8
Data_PATH_09007_1_Final
 10
696812.583
 20
4561267.93
 30
0.0
  0
VERTEX
  8
Data_PATH_09007_1_Final
 10
696888.708
 20
4561192.51
 30
0.0
  0
VERTEX
  8
Data_PATH_09007_1_Final
 10
696926.527
 20
4561152.97
 30
0.0
  0
VERTEX
  8
Data_PATH_09007_1_Final
 10
696962.025
 20
4561112.03
 30
0.0
  0
VERTEX
  8
Data_PATH_09007_1_Final
 10
697029.181
 20
4561030.7
 30
0.0
  0
VERTEX
  8
Data_PATH_09007_1_Final
 10
697064.93
 20
4560990.47
 30
0.0
  0
VERTEX
  8
Data_PATH_09007_1_Final
 10
697141.221
 20
4560909.4
 30
0.0
  0
VERTEX
  8
Data_PATH_09007_1_Final
 10
697177.309
 20
4560869.37
 30
0.0
  0
VERTEX
  8
Data_PATH_09007_1_Final
 10
697246.025
 20
4560789.43
 30
0.0
  0
VERTEX
  8
Data_PATH_09007_1_Final
 10
697283.312
 20
4560750.19
 30
0.0
  0
VERTEX
  8
Data_PATH_09007_1_Final
 10
697323.473
 20
4560711.68
 30
0.0
  0
VERTEX
  8
Data_PATH_09007_1_Final
 10
697405.55
 20
4560635.51
 30
0.0
  0
VERTEX
  8
Data_PATH_09007_1_Final
 10
697443.967
 20
4560597.36
 30
0.0
  0
VERTEX
  8
Data_PATH_09007_1_Final
 10
697518.027
 20
4560520.99
 30
0.0
  0
VERTEX
  8
Data_PATH_09007_1_Final
 10
697557.395
 20
4560482.3
 30
0.0
  0
VERTEX
  8
Data_PATH_09007_1_Final
 10
697681.282
 20
4560365.43
 30
0.0
  0
VERTEX
  8
Data_PATH_09007_1_Final
 10
697721.153
 20
4560329.01
 30
0.0
  0
VERTEX
  8
Data_PATH_09007_1_Final
 10
697762.892
 20
4560293.51
 30
0.0
  0
VERTEX
  8
Data_PATH_09007_1_Final
 10
697893.225
 20
4560192.62
 30
0.0
  0
VERTEX
  8
Data_PATH_09007_1_Final
 10
697973.183
 20
4560126.94
 30
0.0
  0
VERTEX
  8
Data_PATH_09007_1_Final
 10
698055.484
 20
4560060.95
 30
0.0
  0
VERTEX
  8
Data_PATH_09007_1_Final
 10
698095.509
 20
4560027.38
 30
0.0
  0
VERTEX
  8
Data_PATH_09007_1_Final
 10
698114.258
 20
4560009.61
 30
0.0
  0
VERTEX
  8
Data_PATH_09007_1_Final
 10
698131.899
 20
4559991.12
 30
0.0
  0
VERTEX
  8
Data_PATH_09007_1_Final
 10
698148.387
 20
4559971.83
 30
0.0
  0
VERTEX
  8
Data_PATH_09007_1_Final
 10
698163.803
 20
4559951.69
 30
0.0
  0
VERTEX
  8
Data_PATH_09007_1_Final
 10
698223.103
 20
4559866.97
 30
0.0
  0
VERTEX
  8
Data_PATH_09007_1_Final
 10
698239.149
 20
4559846.28
 30
0.0
  0
VERTEX
  8
Data_PATH_09007_1_Final
 10
698290.259
 20
4559787.43
 30
0.0
  0
VERTEX
  8
Data_PATH_09007_1_Final
 10
698325.052
 20
4559748.5
 30
0.0
  0
VERTEX
  8
Data_PATH_09007_1_Final
 10
698341.924
 20
4559727.86
 30
0.0
  0
VERTEX
  8
Data_PATH_09007_1_Final
 10
698358.091
 20
4559706.43
 30
0.0
  0
VERTEX
  8
Data_PATH_09007_1_Final
 10
698388.425
 20
4559662.28
 30
0.0
  0
VERTEX
  8
Data_PATH_09007_1_Final
 10
698417.024
 20
4559617.96
 30
0.0
  0
VERTEX
  8
Data_PATH_09007_1_Final
 10
698447.13
 20
4559574.79
 30
0.0
  0
VERTEX
  8
Data_PATH_09007_1_Final
 10
698480.361
 20
4559533.19
 30
0.0
  0
VERTEX
  8
Data_PATH_09007_1_Final
 10
698517.192
 20
4559492.39
 30
0.0
  0
VERTEX
  8
Data_PATH_09007_1_Final
 10
698554.779
 20
4559450.53
 30
0.0
  0
VERTEX
  8
Data_PATH_09007_1_Final
 10
698589.397
 20
4559408.99
 30
0.0
  0
VERTEX
  8
Data_PATH_09007_1_Final
 10
698653.029
 20
4559324.58
 30
0.0
  0
VERTEX
  8
Data_PATH_09007_1_Final
 10
698688.307
 20
4559283.85
 30
0.0
  0
VERTEX
  8
Data_PATH_09007_1_Final
 10
698725.49
 20
4559246
 30
0.0
  0
VERTEX
  8
Data_PATH_09007_1_Final
 10
698763.334
 20
4559210.42
 30
0.0
  0
VERTEX
  8
Data_PATH_09007_1_Final
 10
698799.6
 20
4559174.78
 30
0.0
  0
VERTEX
  8
Data_PATH_09007_1_Final
 10
698833.261
 20
4559137.49
 30
0.0
  0
VERTEX
  8
Data_PATH_09007_1_Final
 10
698898.85
 20
4559057.57
 30
0.0
  0
VERTEX
  8
Data_PATH_09007_1_Final
 10
698916.298
 20
4559038.06
 30
0.0
  0
VERTEX
  8
Data_PATH_09007_1_Final
 10
698934.672
 20
4559019.42
 30
0.0
  0
VERTEX
  8
Data_PATH_09007_1_Final
 10
698973.501
 20
4558983.71
 30
0.0
  0
VERTEX
  8
Data_PATH_09007_1_Final
 10
699013.368
 20
4558948.52
 30
0.0
  0
VERTEX
  8
Data_PATH_09007_1_Final
 10
699051.427
 20
4558912.24
 30
0.0
  0
VERTEX
  8
Data_PATH_09007_1_Final
 10
699087.765
 20
4558874.49
 30
0.0
  0
VERTEX
  8
Data_PATH_09007_1_Final
 10
699124.043
 20
4558835.3
 30
0.0
  0
VERTEX
  8
Data_PATH_09007_1_Final
 10
699161.497
 20
4558796.72
 30
0.0
  0
VERTEX
  8
Data_PATH_09007_1_Final
 10
699242.043
 20
4558721.51
 30
0.0
  0
VERTEX
  8
Data_PATH_09007_1_Final
 10
699280.699
 20
4558683.22
 30
0.0
  0
VERTEX
  8
Data_PATH_09007_1_Final
 10
699352.126
 20
4558606.5
 30
0.0
  0
VERTEX
  8
Data_PATH_09007_1_Final
 10
699390.5
 20
4558568.74
 30
0.0
  0
VERTEX
  8
Data_PATH_09007_1_Final
 10
699432.134
 20
4558532.67
 30
0.0
  0
VERTEX
  8
Data_PATH_09007_1_Final
 10
699519.982
 20
4558462.07
 30
0.0
  0
VERTEX
  8
Data_PATH_09007_1_Final
 10
699559.366
 20
4558427.93
 30
0.0
  0
VERTEX
  8
Data_PATH_09007_1_Final
 10
699595.92
 20
4558393.17
 30
0.0
  0
VERTEX
  8
Data_PATH_09007_1_Final
 10
699671.925
 20
4558315.06
 30
0.0
  0
VERTEX
  8
Data_PATH_09007_1_Final
 10
699748.138
 20
4558236.07
 30
0.0
  0
VERTEX
  8
Data_PATH_09007_1_Final
 10
699817.883
 20
4558162.43
 30
0.0
  0
VERTEX
  8
Data_PATH_09007_1_Final
 10
699894.079
 20
4558082.39
 30
0.0
  0
VERTEX
  8
Data_PATH_09007_1_Final
 10
699971.592
 20
4558002.47
 30
0.0
  0
VERTEX
  8
Data_PATH_09007_1_Final
 10
700085.276
 20
4557885.51
 30
0.0
  0
VERTEX
  8
Data_PATH_09007_1_Final
 10
700124.792
 20
4557841.87
 30
0.0
  0
VERTEX
  8
Data_PATH_09007_1_Final
 10
700161.278
 20
4557797.46
 30
0.0
  0
VERTEX
  8
Data_PATH_09007_1_Final
 10
700222.136
 20
4557713.36
 30
0.0
  0
VERTEX
  8
Data_PATH_09007_1_Final
 10
700253.481
 20
4557671.99
 30
0.0
  0
VERTEX
  8
Data_PATH_09007_1_Final
 10
700288.538
 20
4557629.73
 30
0.0
  0
VERTEX
  8
Data_PATH_09007_1_Final
 10
700362.725
 20
4557543.87
 30
0.0
  0
VERTEX
  8
Data_PATH_09007_1_Final
 10
700431.504
 20
4557459.27
 30
0.0
  0
VERTEX
  8
Data_PATH_09007_1_Final
 10
700467.156
 20
4557418.91
 30
0.0
  0
VERTEX
  8
Data_PATH_09007_1_Final
 10
700506.564
 20
4557379.82
 30
0.0
  0
VERTEX
  8
Data_PATH_09007_1_Final
 10
700592.561
 20
4557303.94
 30
0.0
  0
VERTEX
  8
Data_PATH_09007_1_Final
 10
700631.402
 20
4557267.53
 30
0.0
  0
VERTEX
  8
Data_PATH_09007_1_Final
 10
700667.52
 20
4557230.61
 30
0.0
  0
VERTEX
  8
Data_PATH_09007_1_Final
 10
700776.776
 20
4557113.21
 30
0.0
  0
VERTEX
  8
Data_PATH_09007_1_Final
 10
700853.167
 20
4557033.97
 30
0.0
  0
VERTEX
  8
Data_PATH_09007_1_Final
 10
700889.715
 20
4556994.28
 30
0.0
  0
VERTEX
  8
Data_PATH_09007_1_Final
 10
700997.244
 20
4556871.33
 30
0.0
  0
VERTEX
  8
Data_PATH_09007_1_Final
 10
701143.797
 20
4556712.99
 30
0.0
  0
VERTEX
  8
Data_PATH_09007_1_Final
 10
701178.627
 20
4556675.06
 30
0.0
  0
VERTEX
  8
Data_PATH_09007_1_Final
 10
701215.151
 20
4556637.83
 30
0.0
  0
VERTEX
  8
Data_PATH_09007_1_Final
 10
701254.604
 20
4556600.98
 30
0.0
  0
VERTEX
  8
Data_PATH_09007_1_Final
 10
701296.057
 20
4556564.95
 30
0.0
  0
VERTEX
  8
Data_PATH_09007_1_Final
 10
701376.866
 20
4556494.68
 30
0.0
  0
VERTEX
  8
Data_PATH_09007_1_Final
 10
701449.618
 20
4556427.89
 30
0.0
  0
VERTEX
  8
Data_PATH_09007_1_Final
 10
701523.762
 20
4556358.84
 30
0.0
  0
VERTEX
  8
Data_PATH_09007_1_Final
 10
701560.53
 20
4556322.29
 30
0.0
  0
VERTEX
  8
Data_PATH_09007_1_Final
 10
701595.761
 20
4556284.93
 30
0.0
  0
VERTEX
  8
Data_PATH_09007_1_Final
 10
701662.057
 20
4556211.04
 30
0.0
  0
VERTEX
  8
Data_PATH_09007_1_Final
 10
701695.921
 20
4556174.87
 30
0.0
  0
VERTEX
  8
Data_PATH_09007_1_Final
 10
701730.941
 20
4556139.17
 30
0.0
  0
VERTEX
  8
Data_PATH_09007_1_Final
 10
701800.801
 20
4556067.05
 30
0.0
  0
VERTEX
  8
Data_PATH_09007_1_Final
 10
701834.211
 20
4556028.96
 30
0.0
  0
VERTEX
  8
Data_PATH_09007_1_Final
 10
701903.147
 20
4555946.88
 30
0.0
  0
VERTEX
  8
Data_PATH_09007_1_Final
 10
701938.865
 20
4555907.16
 30
0.0
  0
VERTEX
  8
Data_PATH_09007_1_Final
 10
701975.49
 20
4555869.8
 30
0.0
  0
VERTEX
  8
Data_PATH_09007_1_Final
 10
702050.84
 20
4555796.2
 30
0.0
  0
VERTEX
  8
Data_PATH_09007_1_Final
 10
702088.779
 20
4555757
 30
0.0
  0
VERTEX
  8
Data_PATH_09007_1_Final
 10
702160.829
 20
4555679.8
 30
0.0
  0
VERTEX
  8
Data_PATH_09007_1_Final
 10
702269.003
 20
4555567.86
 30
0.0
  0
VERTEX
  8
Data_PATH_09007_1_Final
 10
702335.073
 20
4555494.33
 30
0.0
  0
SEQEND
  8
Data_PATH_09007_1_Final
  0
TEXT
  8
Data_PATH_09007_1_Final
 10
695625.874
 20
4562840.53
 30
0.0
  1
L10130 E
 11
695625.874
 21
4562840.53
 31
0.0
 40
59.9999929
 41
1
 50
-46.158
 51
0
 71
0
 62
7
  7
ARIAL
 72
2
 73
0
  0
TEXT
  8
Data_PATH_09007_1_Final
 10
702495.093
 20
4555687.98
 30
0.0
  1
L10130 E
 11
702495.093
 21
4555687.98
 31
0.0
 40
59.9999929
 41
1
 50
-46.158
 51
0
 71
0
 62
7
  7
ARIAL
  0
POLYLINE
  8
Data_PATH_09007_1_Final
 66
1
 40
3.59999957
 41
3.59999957
 62
7
 10
702483.482
 20
4555743.38
 30
0.0
  0
VERTEX
  8
Data_PATH_09007_1_Final
 10
702483.482
 20
4555743.38
 30
0.0
  0
VERTEX
  8
Data_PATH_09007_1_Final
 10
702464.409
 20
4555763.8
 30
0.0
  0
VERTEX
  8
Data_PATH_09007_1_Final
 10
702444.558
 20
4555783.43
 30
0.0
  0
VERTEX
  8
Data_PATH_09007_1_Final
 10
702382.189
 20
4555840.29
 30
0.0
  0
VERTEX
  8
Data_PATH_09007_1_Final
 10
702361.717
 20
4555860.11
 30
0.0
  0
VERTEX
  8
Data_PATH_09007_1_Final
 10
702342.053
 20
4555880.8
 30
0.0
  0
VERTEX
  8
Data_PATH_09007_1_Final
 10
702323.299
 20
4555902.41
 30
0.0
  0
VERTEX
  8
Data_PATH_09007_1_Final
 10
702305.468
 20
4555924.81
 30
0.0
  0
VERTEX
  8
Data_PATH_09007_1_Final
 10
702255.274
 20
4555993.08
 30
0.0
  0
VERTEX
  8
Data_PATH_09007_1_Final
 10
702238.024
 20
4556014.6
 30
0.0
  0
VERTEX
  8
Data_PATH_09007_1_Final
 10
702220.005
 20
4556035.14
 30
0.0
  0
VERTEX
  8
Data_PATH_09007_1_Final
 10
702200.999
 20
4556054.73
 30
0.0
  0
VERTEX
  8
Data_PATH_09007_1_Final
 10
702180.623
 20
4556073.49
 30
0.0
  0
VERTEX
  8
Data_PATH_09007_1_Final
 10
702095.491
 20
4556149.12
 30
0.0
  0
VERTEX
  8
Data_PATH_09007_1_Final
 10
702011.991
 20
4556229.13
 30
0.0
  0
VERTEX
  8
Data_PATH_09007_1_Final
 10
701969.062
 20
4556269.73
 30
0.0
  0
VERTEX
  8
Data_PATH_09007_1_Final
 10
701924.7
 20
4556309.38
 30
0.0
  0
VERTEX
  8
Data_PATH_09007_1_Final
 10
701880.309
 20
4556348.41
 30
0.0
  0
VERTEX
  8
Data_PATH_09007_1_Final
 10
701858.776
 20
4556368.54
 30
0.0
  0
VERTEX
  8
Data_PATH_09007_1_Final
 10
701838.091
 20
4556389.28
 30
0.0
  0
VERTEX
  8
Data_PATH_09007_1_Final
 10
701818.303
 20
4556410.74
 30
0.0
  0
VERTEX
  8
Data_PATH_09007_1_Final
 10
701799.438
 20
4556432.9
 30
0.0
  0
VERTEX
  8
Data_PATH_09007_1_Final
 10
701781.497
 20
4556455.66
 30
0.0
  0
VERTEX
  8
Data_PATH_09007_1_Final
 10
701730.417
 20
4556525.74
 30
0.0
  0
VERTEX
  8
Data_PATH_09007_1_Final
 10
701694.875
 20
4556571.28
 30
0.0
  0
VERTEX
  8
Data_PATH_09007_1_Final
 10
701655.44
 20
4556614.63
 30
0.0
  0
VERTEX
  8
Data_PATH_09007_1_Final
 10
701576.027
 20
4556698.19
 30
0.0
  0
VERTEX
  8
Data_PATH_09007_1_Final
 10
701500.155
 20
4556781.59
 30
0.0
  0
VERTEX
  8
Data_PATH_09007_1_Final
 10
701458.179
 20
4556822.67
 30
0.0
  0
VERTEX
  8
Data_PATH_09007_1_Final
 10
701413.067
 20
4556862.44
 30
0.0
  0
VERTEX
  8
Data_PATH_09007_1_Final
 10
701320.33
 20
4556940.07
 30
0.0
  0
VERTEX
  8
Data_PATH_09007_1_Final
 10
701275.974
 20
4556980.23
 30
0.0
  0
VERTEX
  8
Data_PATH_09007_1_Final
 10
701232.865
 20
4557022.3
 30
0.0
  0
VERTEX
  8
Data_PATH_09007_1_Final
 10
701062.687
 20
4557198.44
 30
0.0
  0
VERTEX
  8
Data_PATH_09007_1_Final
 10
700984.047
 20
4557282.08
 30
0.0
  0
VERTEX
  8
Data_PATH_09007_1_Final
 10
700908.567
 20
4557367.74
 30
0.0
  0
VERTEX
  8
Data_PATH_09007_1_Final
 10
700751.423
 20
4557543.28
 30
0.0
  0
VERTEX
  8
Data_PATH_09007_1_Final
 10
700713.171
 20
4557588.1
 30
0.0
  0
VERTEX
  8
Data_PATH_09007_1_Final
 10
700675.585
 20
4557633.78
 30
0.0
  0
VERTEX
  8
Data_PATH_09007_1_Final
 10
700637.263
 20
4557679.94
 30
0.0
  0
VERTEX
  8
Data_PATH_09007_1_Final
 10
700596.745
 20
4557725.59
 30
0.0
  0
VERTEX
  8
Data_PATH_09007_1_Final
 10
700553.478
 20
4557769.89
 30
0.0
  0
VERTEX
  8
Data_PATH_09007_1_Final
 10
700508.962
 20
4557812.59
 30
0.0
  0
VERTEX
  8
Data_PATH_09007_1_Final
 10
700464.869
 20
4557855.02
 30
0.0
  0
VERTEX
  8
Data_PATH_09007_1_Final
 10
700423.913
 20
4557897.81
 30
0.0
  0
VERTEX
  8
Data_PATH_09007_1_Final
 10
700342.551
 20
4557987.49
 30
0.0
  0
VERTEX
  8
Data_PATH_09007_1_Final
 10
700298.724
 20
4558031.21
 30
0.0
  0
VERTEX
  8
Data_PATH_09007_1_Final
 10
700253.684
 20
4558071.73
 30
0.0
  0
VERTEX
  8
Data_PATH_09007_1_Final
 10
700208.279
 20
4558110.64
 30
0.0
  0
VERTEX
  8
Data_PATH_09007_1_Final
 10
700163.587
 20
4558150.68
 30
0.0
  0
VERTEX
  8
Data_PATH_09007_1_Final
 10
700120.296
 20
4558193.06
 30
0.0
  0
VERTEX
  8
Data_PATH_09007_1_Final
 10
699990.997
 20
4558327.81
 30
0.0
  0
VERTEX
  8
Data_PATH_09007_1_Final
 10
699946.93
 20
4558371.29
 30
0.0
  0
VERTEX
  8
Data_PATH_09007_1_Final
 10
699809.415
 20
4558501.45
 30
0.0
  0
VERTEX
  8
Data_PATH_09007_1_Final
 10
699720.418
 20
4558588.55
 30
0.0
  0
VERTEX
  8
Data_PATH_09007_1_Final
 10
699678.488
 20
4558631.81
 30
0.0
  0
VERTEX
  8
Data_PATH_09007_1_Final
 10
699638.394
 20
4558675.99
 30
0.0
  0
VERTEX
  8
Data_PATH_09007_1_Final
 10
699599.585
 20
4558721.7
 30
0.0
  0
VERTEX
  8
Data_PATH_09007_1_Final
 10
699485.301
 20
4558865.81
 30
0.0
  0
VERTEX
  8
Data_PATH_09007_1_Final
 10
699445.869
 20
4558912.07
 30
0.0
  0
VERTEX
  8
Data_PATH_09007_1_Final
 10
699405.898
 20
4558956.07
 30
0.0
  0
VERTEX
  8
Data_PATH_09007_1_Final
 10
699366.631
 20
4558997.28
 30
0.0
  0
VERTEX
  8
Data_PATH_09007_1_Final
 10
699246.921
 20
4559118.41
 30
0.0
  0
VERTEX
  8
Data_PATH_09007_1_Final
 10
699168.822
 20
4559198.28
 30
0.0
  0
VERTEX
  8
Data_PATH_09007_1_Final
 10
699085.574
 20
4559281.53
 30
0.0
  0
VERTEX
  8
Data_PATH_09007_1_Final
 10
698840.982
 20
4559525.02
 30
0.0
  0
VERTEX
  8
Data_PATH_09007_1_Final
 10
698761.941
 20
4559608.5
 30
0.0
  0
VERTEX
  8
Data_PATH_09007_1_Final
 10
698685.734
 20
4559691.22
 30
0.0
  0
VERTEX
  8
Data_PATH_09007_1_Final
 10
698646.233
 20
4559732.41
 30
0.0
  0
VERTEX
  8
Data_PATH_09007_1_Final
 10
698522.136
 20
4559854.32
 30
0.0
  0
VERTEX
  8
Data_PATH_09007_1_Final
 10
698482.842
 20
4559895.53
 30
0.0
  0
VERTEX
  8
Data_PATH_09007_1_Final
 10
698407.951
 20
4559980.23
 30
0.0
  0
VERTEX
  8
Data_PATH_09007_1_Final
 10
698369.67
 20
4560022.34
 30
0.0
  0
VERTEX
  8
Data_PATH_09007_1_Final
 10
698330.159
 20
4560063.2
 30
0.0
  0
VERTEX
  8
Data_PATH_09007_1_Final
 10
698211.962
 20
4560181.02
 30
0.0
  0
VERTEX
  8
Data_PATH_09007_1_Final
 10
697977.7
 20
4560434.14
 30
0.0
  0
VERTEX
  8
Data_PATH_09007_1_Final
 10
697941.937
 20
4560475.02
 30
0.0
  0
VERTEX
  8
Data_PATH_09007_1_Final
 10
697834.19
 20
4560604.24
 30
0.0
  0
VERTEX
  8
Data_PATH_09007_1_Final
 10
697686.362
 20
4560777.4
 30
0.0
  0
VERTEX
  8
Data_PATH_09007_1_Final
 10
697648.534
 20
4560820.43
 30
0.0
  0
VERTEX
  8
Data_PATH_09007_1_Final
 10
697607.775
 20
4560863.47
 30
0.0
  0
VERTEX
  8
Data_PATH_09007_1_Final
 10
697440.595
 20
4561028.74
 30
0.0
  0
VERTEX
  8
Data_PATH_09007_1_Final
 10
697355.028
 20
4561118.64
 30
0.0
  0
VERTEX
  8
Data_PATH_09007_1_Final
 10
697272.63
 20
4561203.82
 30
0.0
  0
VERTEX
  8
Data_PATH_09007_1_Final
 10
697189.953
 20
4561287.07
 30
0.0
  0
VERTEX
  8
Data_PATH_09007_1_Final
 10
697105.458
 20
4561375.64
 30
0.0
  0
VERTEX
  8
Data_PATH_09007_1_Final
 10
697023.375
 20
4561459.87
 30
0.0
  0
VERTEX
  8
Data_PATH_09007_1_Final
 10
696939.898
 20
4561541.45
 30
0.0
  0
VERTEX
  8
Data_PATH_09007_1_Final
 10
696898.18
 20
4561584.89
 30
0.0
  0
VERTEX
  8
Data_PATH_09007_1_Final
 10
696778.671
 20
4561716.97
 30
0.0
  0
VERTEX
  8
Data_PATH_09007_1_Final
 10
696657.293
 20
4561842.57
 30
0.0
  0
VERTEX
  8
Data_PATH_09007_1_Final
 10
696575.581
 20
4561931.46
 30
0.0
  0
VERTEX
  8
Data_PATH_09007_1_Final
 10
696534.695
 20
4561974.46
 30
0.0
  0
VERTEX
  8
Data_PATH_09007_1_Final
 10
696410.702
 20
4562097.81
 30
0.0
  0
VERTEX
  8
Data_PATH_09007_1_Final
 10
696286.165
 20
4562228.79
 30
0.0
  0
VERTEX
  8
Data_PATH_09007_1_Final
 10
696244.467
 20
4562270.26
 30
0.0
  0
VERTEX
  8
Data_PATH_09007_1_Final
 10
696116.341
 20
4562390.99
 30
0.0
  0
VERTEX
  8
Data_PATH_09007_1_Final
 10
695948.958
 20
4562558.04
 30
0.0
  0
VERTEX
  8
Data_PATH_09007_1_Final
 10
695864.975
 20
4562640.2
 30
0.0
  0
VERTEX
  8
Data_PATH_09007_1_Final
 10
695741.555
 20
4562767.6
 30
0.0
  0
VERTEX
  8
Data_PATH_09007_1_Final
 10
695680.76
 20
4562826.69
 30
0.0
  0
SEQEND
  8
Data_PATH_09007_1_Final
  0
TEXT
  8
Data_PATH_09007_1_Final
 10
696079.905
 20
4562808.28
 30
0.0
  1
L10140 E
 11
696079.905
 21
4562808.28
 31
0.0
 40
59.9999929
 41
1
 50
-46.254
 51
0
 71
0
 62
7
  7
ARIAL
 72
2
 73
0
  0
TEXT
  8
Data_PATH_09007_1_Final
 10
702726.013
 20
4555864.79
 30
0.0
  1
L10140 E
 11
702726.013
 21
4555864.79
 31
0.0
 40
59.9999929
 41
1
 50
-46.254
 51
0
 71
0
 62
7
  7
ARIAL
  0
POLYLINE
  8
Data_PATH_09007_1_Final
 66
1
 40
3.59999957
 41
3.59999957
 62
7
 10
696134.768
 20
4562794.35
 30
0.0
  0
VERTEX
  8
Data_PATH_09007_1_Final
 10
696134.768
 20
4562794.35
 30
0.0
  0
VERTEX
  8
Data_PATH_09007_1_Final
 10
696174.711
 20
4562755.2
 30
0.0
  0
VERTEX
  8
Data_PATH_09007_1_Final
 10
696216.74
 20
4562717.44
 30
0.0
  0
VERTEX
  8
Data_PATH_09007_1_Final
 10
696258.186
 20
4562679.23
 30
0.0
  0
VERTEX
  8
Data_PATH_09007_1_Final
 10
696297.18
 20
4562639.1
 30
0.0
  0
VERTEX
  8
Data_PATH_09007_1_Final
 10
696372.546
 20
4562553.59
 30
0.0
  0
VERTEX
  8
Data_PATH_09007_1_Final
 10
696411.033
 20
4562511.34
 30
0.0
  0
VERTEX
  8
Data_PATH_09007_1_Final
 10
696489.743
 20
4562430.15
 30
0.0
  0
VERTEX
  8
Data_PATH_09007_1_Final
 10
696528.238
 20
4562388.98
 30
0.0
  0
VERTEX
  8
Data_PATH_09007_1_Final
 10
696637.268
 20
4562261.29
 30
0.0
  0
VERTEX
  8
Data_PATH_09007_1_Final
 10
696675.368
 20
4562219.48
 30
0.0
  0
VERTEX
  8
Data_PATH_09007_1_Final
 10
696750.441
 20
4562141.63
 30
0.0
  0
VERTEX
  8
Data_PATH_09007_1_Final
 10
696786.97
 20
4562102.15
 30
0.0
  0
VERTEX
  8
Data_PATH_09007_1_Final
 10
696893.354
 20
4561979.31
 30
0.0
  0
VERTEX
  8
Data_PATH_09007_1_Final
 10
697039.903
 20
4561825.31
 30
0.0
  0
VERTEX
  8
Data_PATH_09007_1_Final
 10
697193.636
 20
4561668.71
 30
0.0
  0
VERTEX
  8
Data_PATH_09007_1_Final
 10
697272.147
 20
4561586.33
 30
0.0
  0
VERTEX
  8
Data_PATH_09007_1_Final
 10
697348.351
 20
4561503.32
 30
0.0
  0
VERTEX
  8
Data_PATH_09007_1_Final
 10
697464.897
 20
4561383.1
 30
0.0
  0
VERTEX
  8
Data_PATH_09007_1_Final
 10
697504.327
 20
4561340.03
 30
0.0
  0
VERTEX
  8
Data_PATH_09007_1_Final
 10
697612.488
 20
4561216.05
 30
0.0
  0
VERTEX
  8
Data_PATH_09007_1_Final
 10
697648.732
 20
4561176.52
 30
0.0
  0
VERTEX
  8
Data_PATH_09007_1_Final
 10
697799.44
 20
4561019.45
 30
0.0
  0
VERTEX
  8
Data_PATH_09007_1_Final
 10
697835.952
 20
4560980.1
 30
0.0
  0
VERTEX
  8
Data_PATH_09007_1_Final
 10
697871.536
 20
4560939.15
 30
0.0
  0
VERTEX
  8
Data_PATH_09007_1_Final
 10
697973.99
 20
4560814.28
 30
0.0
  0
VERTEX
  8
Data_PATH_09007_1_Final
 10
698009.705
 20
4560774.3
 30
0.0
  0
VERTEX
  8
Data_PATH_09007_1_Final
 10
698087.461
 20
4560694.1
 30
0.0
  0
VERTEX
  8
Data_PATH_09007_1_Final
 10
698163.436
 20
4560610.99
 30
0.0
  0
VERTEX
  8
Data_PATH_09007_1_Final
 10
698202.081
 20
4560571.92
 30
0.0
  0
VERTEX
  8
Data_PATH_09007_1_Final
 10
698222.669
 20
4560554
 30
0.0
  0
VERTEX
  8
Data_PATH_09007_1_Final
 10
698244.074
 20
4560536.74
 30
0.0
  0
VERTEX
  8
Data_PATH_09007_1_Final
 10
698334.302
 20
4560467.89
 30
0.0
  0
VERTEX
  8
Data_PATH_09007_1_Final
 10
698376.392
 20
4560431.84
 30
0.0
  0
VERTEX
  8
Data_PATH_09007_1_Final
 10
698454.13
 20
4560357.7
 30
0.0
  0
VERTEX
  8
Data_PATH_09007_1_Final
 10
698494.644
 20
4560320.78
 30
0.0
  0
VERTEX
  8
Data_PATH_09007_1_Final
 10
698537.795
 20
4560284.09
 30
0.0
  0
VERTEX
  8
Data_PATH_09007_1_Final
 10
698581.233
 20
4560247.08
 30
0.0
  0
VERTEX
  8
Data_PATH_09007_1_Final
 10
698601.9
 20
4560228.24
 30
0.0
  0
VERTEX
  8
Data_PATH_09007_1_Final
 10
698621.424
 20
4560208.93
 30
0.0
  0
VERTEX
  8
Data_PATH_09007_1_Final
 10
698639.315
 20
4560188.98
 30
0.0
  0
VERTEX
  8
Data_PATH_09007_1_Final
 10
698656.311
 20
4560168.46
 30
0.0
  0
VERTEX
  8
Data_PATH_09007_1_Final
 10
698689.161
 20
4560125.72
 30
0.0
  0
VERTEX
  8
Data_PATH_09007_1_Final
 10
698723.707
 20
4560081.35
 30
0.0
  0
VERTEX
  8
Data_PATH_09007_1_Final
 10
698742.528
 20
4560059.48
 30
0.0
  0
VERTEX
  8
Data_PATH_09007_1_Final
 10
698762.179
 20
4560038.32
 30
0.0
  0
VERTEX
  8
Data_PATH_09007_1_Final
 10
698802.919
 20
4559998.73
 30
0.0
  0
VERTEX
  8
Data_PATH_09007_1_Final
 10
698843.882
 20
4559961.75
 30
0.0
  0
VERTEX
  8
Data_PATH_09007_1_Final
 10
698883.786
 20
4559923.4
 30
0.0
  0
VERTEX
  8
Data_PATH_09007_1_Final
 10
698903.026
 20
4559903.19
 30
0.0
  0
VERTEX
  8
Data_PATH_09007_1_Final
 10
698921.686
 20
4559881.75
 30
0.0
  0
VERTEX
  8
Data_PATH_09007_1_Final
 10
698993.954
 20
4559794.09
 30
0.0
  0
VERTEX
  8
Data_PATH_09007_1_Final
 10
699031.49
 20
4559753.52
 30
0.0
  0
VERTEX
  8
Data_PATH_09007_1_Final
 10
699110.859
 20
4559672.76
 30
0.0
  0
VERTEX
  8
Data_PATH_09007_1_Final
 10
699148.721
 20
4559629.82
 30
0.0
  0
VERTEX
  8
Data_PATH_09007_1_Final
 10
699184.338
 20
4559585.49
 30
0.0
  0
VERTEX
  8
Data_PATH_09007_1_Final
 10
699219.88
 20
4559539.33
 30
0.0
  0
VERTEX
  8
Data_PATH_09007_1_Final
 10
699256.395
 20
4559494.03
 30
0.0
  0
VERTEX
  8
Data_PATH_09007_1_Final
 10
699293.482
 20
4559451.99
 30
0.0
  0
VERTEX
  8
Data_PATH_09007_1_Final
 10
699373.401
 20
4559369.6
 30
0.0
  0
VERTEX
  8
Data_PATH_09007_1_Final
 10
699415.761
 20
4559327.24
 30
0.0
  0
VERTEX
  8
Data_PATH_09007_1_Final
 10
699459.67
 20
4559284.88
 30
0.0
  0
VERTEX
  8
Data_PATH_09007_1_Final
 10
699505.099
 20
4559243.33
 30
0.0
  0
VERTEX
  8
Data_PATH_09007_1_Final
 10
699643.895
 20
4559122.27
 30
0.0
  0
VERTEX
  8
Data_PATH_09007_1_Final
 10
699689.247
 20
4559080.26
 30
0.0
  0
VERTEX
  8
Data_PATH_09007_1_Final
 10
699732.813
 20
4559037.63
 30
0.0
  0
VERTEX
  8
Data_PATH_09007_1_Final
 10
699775.13
 20
4558993.81
 30
0.0
  0
VERTEX
  8
Data_PATH_09007_1_Final
 10
699896.317
 20
4558860.71
 30
0.0
  0
VERTEX
  8
Data_PATH_09007_1_Final
 10
700208.442
 20
4558523.9
 30
0.0
  0
VERTEX
  8
Data_PATH_09007_1_Final
 10
700283.859
 20
4558441.88
 30
0.0
  0
VERTEX
  8
Data_PATH_09007_1_Final
 10
700363.663
 20
4558358.54
 30
0.0
  0
VERTEX
  8
Data_PATH_09007_1_Final
 10
700440.077
 20
4558280.8
 30
0.0
  0
VERTEX
  8
Data_PATH_09007_1_Final
 10
700476.584
 20
4558242.22
 30
0.0
  0
VERTEX
  8
Data_PATH_09007_1_Final
 10
700513.647
 20
4558201.36
 30
0.0
  0
VERTEX
  8
Data_PATH_09007_1_Final
 10
700589.026
 20
4558114.78
 30
0.0
  0
VERTEX
  8
Data_PATH_09007_1_Final
 10
700625.228
 20
4558075.08
 30
0.0
  0
VERTEX
  8
Data_PATH_09007_1_Final
 10
700662.585
 20
4558036.01
 30
0.0
  0
VERTEX
  8
Data_PATH_09007_1_Final
 10
700743.724
 20
4557951.81
 30
0.0
  0
VERTEX
  8
Data_PATH_09007_1_Final
 10
700822.864
 20
4557865.8
 30
0.0
  0
VERTEX
  8
Data_PATH_09007_1_Final
 10
700861.631
 20
4557824.63
 30
0.0
  0
VERTEX
  8
Data_PATH_09007_1_Final
 10
700902.212
 20
4557783.76
 30
0.0
  0
VERTEX
  8
Data_PATH_09007_1_Final
 10
700987.224
 20
4557700.23
 30
0.0
  0
VERTEX
  8
Data_PATH_09007_1_Final
 10
701068.562
 20
4557617.72
 30
0.0
  0
VERTEX
  8
Data_PATH_09007_1_Final
 10
701108.562
 20
4557577.08
 30
0.0
  0
VERTEX
  8
Data_PATH_09007_1_Final
 10
701150.026
 20
4557536.49
 30
0.0
  0
VERTEX
  8
Data_PATH_09007_1_Final
 10
701324.909
 20
4557374.46
 30
0.0
  0
VERTEX
  8
Data_PATH_09007_1_Final
 10
701366.284
 20
4557334.16
 30
0.0
  0
VERTEX
  8
Data_PATH_09007_1_Final
 10
701407.064
 20
4557292.77
 30
0.0
  0
VERTEX
  8
Data_PATH_09007_1_Final
 10
701565.763
 20
4557125.67
 30
0.0
  0
VERTEX
  8
Data_PATH_09007_1_Final
 10
701604.214
 20
4557081.86
 30
0.0
  0
VERTEX
  8
Data_PATH_09007_1_Final
 10
701639.679
 20
4557037.16
 30
0.0
  0
VERTEX
  8
Data_PATH_09007_1_Final
 10
701704.934
 20
4556952.98
 30
0.0
  0
VERTEX
  8
Data_PATH_09007_1_Final
 10
701739.273
 20
4556911.79
 30
0.0
  0
VERTEX
  8
Data_PATH_09007_1_Final
 10
701888.976
 20
4556742.29
 30
0.0
  0
VERTEX
  8
Data_PATH_09007_1_Final
 10
701926.89
 20
4556702.18
 30
0.0
  0
VERTEX
  8
Data_PATH_09007_1_Final
 10
701966.411
 20
4556662.57
 30
0.0
  0
VERTEX
  8
Data_PATH_09007_1_Final
 10
702094.558
 20
4556538.44
 30
0.0
  0
VERTEX
  8
Data_PATH_09007_1_Final
 10
702174.554
 20
4556457.92
 30
0.0
  0
VERTEX
  8
Data_PATH_09007_1_Final
 10
702304.745
 20
4556335.14
 30
0.0
  0
VERTEX
  8
Data_PATH_09007_1_Final
 10
702346.105
 20
4556294.61
 30
0.0
  0
VERTEX
  8
Data_PATH_09007_1_Final
 10
702424.294
 20
4556215.07
 30
0.0
  0
VERTEX
  8
Data_PATH_09007_1_Final
 10
702670.004
 20
4555964.29
 30
0.0
  0
VERTEX
  8
Data_PATH_09007_1_Final
 10
702714.495
 20
4555920.21
 30
0.0
  0
SEQEND
  8
Data_PATH_09007_1_Final
  0
TEXT
  8
Data_PATH_09007_1_Final
 10
696376.745
 20
4562869.32
 30
0.0
  1
L10150 E
 11
696376.745
 21
4562869.32
 31
0.0
 40
59.9999929
 41
1
 50
-46.29
 51
0
 71
0
 62
7
  7
ARIAL
 72
2
 73
0
  0
TEXT
  8
Data_PATH_09007_1_Final
 10
702843.785
 20
4556104.36
 30
0.0
  1
L10150 E
 11
702843.785
 21
4556104.36
 31
0.0
 40
59.9999929
 41
1
 50
-46.29
 51
0
 71
0
 62
7
  7
ARIAL
  0
POLYLINE
  8
Data_PATH_09007_1_Final
 66
1
 40
3.59999957
 41
3.59999957
 62
7
 10
702832.302
 20
4556159.79
 30
0.0
  0
VERTEX
  8
Data_PATH_09007_1_Final
 10
702832.302
 20
4556159.79
 30
0.0
  0
VERTEX
  8
Data_PATH_09007_1_Final
 10
702790.561
 20
4556201.88
 30
0.0
  0
VERTEX
  8
Data_PATH_09007_1_Final
 10
702747.959
 20
4556242.57
 30
0.0
  0
VERTEX
  8
Data_PATH_09007_1_Final
 10
702705.286
 20
4556284.45
 30
0.0
  0
VERTEX
  8
Data_PATH_09007_1_Final
 10
702663.767
 20
4556328.87
 30
0.0
  0
VERTEX
  8
Data_PATH_09007_1_Final
 10
702624.005
 20
4556375.7
 30
0.0
  0
VERTEX
  8
Data_PATH_09007_1_Final
 10
702585.813
 20
4556424
 30
0.0
  0
VERTEX
  8
Data_PATH_09007_1_Final
 10
702476.163
 20
4556569.74
 30
0.0
  0
VERTEX
  8
Data_PATH_09007_1_Final
 10
702438.815
 20
4556618.07
 30
0.0
  0
VERTEX
  8
Data_PATH_09007_1_Final
 10
702320.06
 20
4556764.05
 30
0.0
  0
VERTEX
  8
Data_PATH_09007_1_Final
 10
702245.701
 20
4556860.73
 30
0.0
  0
VERTEX
  8
Data_PATH_09007_1_Final
 10
702226.734
 20
4556883.97
 30
0.0
  0
VERTEX
  8
Data_PATH_09007_1_Final
 10
702196.244
 20
4556917.96
 30
0.0
  0
VERTEX
  8
Data_PATH_09007_1_Final
 10
702162.449
 20
4556949.8
 30
0.0
  0
VERTEX
  8
Data_PATH_09007_1_Final
 10
702138.707
 20
4556970
 30
0.0
  0
VERTEX
  8
Data_PATH_09007_1_Final
 10
702040.814
 20
4557043.96
 30
0.0
  0
VERTEX
  8
Data_PATH_09007_1_Final
 10
702017.96
 20
4557062.82
 30
0.0
  0
VERTEX
  8
Data_PATH_09007_1_Final
 10
701996.648
 20
4557082.54
 30
0.0
  0
VERTEX
  8
Data_PATH_09007_1_Final
 10
701956.812
 20
4557123.9
 30
0.0
  0
VERTEX
  8
Data_PATH_09007_1_Final
 10
701880.629
 20
4557210.5
 30
0.0
  0
VERTEX
  8
Data_PATH_09007_1_Final
 10
701841.525
 20
4557252.54
 30
0.0
  0
VERTEX
  8
Data_PATH_09007_1_Final
 10
701799.755
 20
4557293.32
 30
0.0
  0
VERTEX
  8
Data_PATH_09007_1_Final
 10
701712.883
 20
4557375.29
 30
0.0
  0
VERTEX
  8
Data_PATH_09007_1_Final
 10
701670.055
 20
4557418.34
 30
0.0
  0
VERTEX
  8
Data_PATH_09007_1_Final
 10
701589.443
 20
4557501.9
 30
0.0
  0
VERTEX
  8
Data_PATH_09007_1_Final
 10
701549.298
 20
4557541.03
 30
0.0
  0
VERTEX
  8
Data_PATH_09007_1_Final
 10
701465.024
 20
4557619.44
 30
0.0
  0
VERTEX
  8
Data_PATH_09007_1_Final
 10
701423.719
 20
4557660.53
 30
0.0
  0
VERTEX
  8
Data_PATH_09007_1_Final
 10
701342.926
 20
4557745.68
 30
0.0
  0
VERTEX
  8
Data_PATH_09007_1_Final
 10
701300.035
 20
4557787.09
 30
0.0
  0
VERTEX
  8
Data_PATH_09007_1_Final
 10
701253.844
 20
4557826.93
 30
0.0
  0
VERTEX
  8
Data_PATH_09007_1_Final
 10
701206.338
 20
4557866.02
 30
0.0
  0
VERTEX
  8
Data_PATH_09007_1_Final
 10
701160.068
 20
4557905.69
 30
0.0
  0
VERTEX
  8
Data_PATH_09007_1_Final
 10
701138.167
 20
4557926.36
 30
0.0
  0
VERTEX
  8
Data_PATH_09007_1_Final
 10
701117.09
 20
4557947.63
 30
0.0
  0
VERTEX
  8
Data_PATH_09007_1_Final
 10
701076.98
 20
4557991.98
 30
0.0
  0
VERTEX
  8
Data_PATH_09007_1_Final
 10
700997.814
 20
4558084.45
 30
0.0
  0
VERTEX
  8
Data_PATH_09007_1_Final
 10
700955.905
 20
4558128.89
 30
0.0
  0
VERTEX
  8
Data_PATH_09007_1_Final
 10
700912.866
 20
4558171.63
 30
0.0
  0
VERTEX
  8
Data_PATH_09007_1_Final
 10
700870.116
 20
4558213.96
 30
0.0
  0
VERTEX
  8
Data_PATH_09007_1_Final
 10
700829.11
 20
4558257.13
 30
0.0
  0
VERTEX
  8
Data_PATH_09007_1_Final
 10
700789.874
 20
4558301.48
 30
0.0
  0
VERTEX
  8
Data_PATH_09007_1_Final
 10
700751.152
 20
4558347.68
 30
0.0
  0
VERTEX
  8
Data_PATH_09007_1_Final
 10
700671.569
 20
4558441.3
 30
0.0
  0
VERTEX
  8
Data_PATH_09007_1_Final
 10
700590.41
 20
4558530.72
 30
0.0
  0
VERTEX
  8
Data_PATH_09007_1_Final
 10
700473.299
 20
4558659.1
 30
0.0
  0
VERTEX
  8
Data_PATH_09007_1_Final
 10
700431.479
 20
4558702.34
 30
0.0
  0
VERTEX
  8
Data_PATH_09007_1_Final
 10
700302.617
 20
4558828.76
 30
0.0
  0
VERTEX
  8
Data_PATH_09007_1_Final
 10
700260.761
 20
4558870.85
 30
0.0
  0
VERTEX
  8
Data_PATH_09007_1_Final
 10
700219.901
 20
4558914.87
 30
0.0
  0
VERTEX
  8
Data_PATH_09007_1_Final
 10
700138.194
 20
4559006.07
 30
0.0
  0
VERTEX
  8
Data_PATH_09007_1_Final
 10
700095.677
 20
4559050.59
 30
0.0
  0
VERTEX
  8
Data_PATH_09007_1_Final
 10
700008.131
 20
4559136.2
 30
0.0
  0
VERTEX
  8
Data_PATH_09007_1_Final
 10
699966.16
 20
4559178.25
 30
0.0
  0
VERTEX
  8
Data_PATH_09007_1_Final
 10
699888.971
 20
4559261.93
 30
0.0
  0
VERTEX
  8
Data_PATH_09007_1_Final
 10
699850.205
 20
4559302.89
 30
0.0
  0
VERTEX
  8
Data_PATH_09007_1_Final
 10
699809.08
 20
4559342.79
 30
0.0
  0
VERTEX
  8
Data_PATH_09007_1_Final
 10
699722.858
 20
4559421.17
 30
0.0
  0
VERTEX
  8
Data_PATH_09007_1_Final
 10
699680.142
 20
4559461.41
 30
0.0
  0
VERTEX
  8
Data_PATH_09007_1_Final
 10
699638.254
 20
4559503.71
 30
0.0
  0
VERTEX
  8
Data_PATH_09007_1_Final
 10
699556.101
 20
4559592.28
 30
0.0
  0
VERTEX
  8
Data_PATH_09007_1_Final
 10
699515.099
 20
4559634.64
 30
0.0
  0
VERTEX
  8
Data_PATH_09007_1_Final
 10
699429.702
 20
4559717.96
 30
0.0
  0
VERTEX
  8
Data_PATH_09007_1_Final
 10
699388.515
 20
4559761.54
 30
0.0
  0
VERTEX
  8
Data_PATH_09007_1_Final
 10
699349.852
 20
4559806.11
 30
0.0
  0
VERTEX
  8
Data_PATH_09007_1_Final
 10
699312.631
 20
4559850.93
 30
0.0
  0
VERTEX
  8
Data_PATH_09007_1_Final
 10
699274.522
 20
4559894.89
 30
0.0
  0
VERTEX
  8
Data_PATH_09007_1_Final
 10
699234.318
 20
4559937.46
 30
0.0
  0
VERTEX
  8
Data_PATH_09007_1_Final
 10
699192.163
 20
4559979.07
 30
0.0
  0
VERTEX
  8
Data_PATH_09007_1_Final
 10
699149.477
 20
4560021.2
 30
0.0
  0
VERTEX
  8
Data_PATH_09007_1_Final
 10
699107.655
 20
4560064.59
 30
0.0
  0
VERTEX
  8
Data_PATH_09007_1_Final
 10
699068.115
 20
4560108.67
 30
0.0
  0
VERTEX
  8
Data_PATH_09007_1_Final
 10
699030.133
 20
4560152.48
 30
0.0
  0
VERTEX
  8
Data_PATH_09007_1_Final
 10
698991.439
 20
4560194.58
 30
0.0
  0
VERTEX
  8
Data_PATH_09007_1_Final
 10
698950.344
 20
4560234.94
 30
0.0
  0
VERTEX
  8
Data_PATH_09007_1_Final
 10
698862.741
 20
4560313.77
 30
0.0
  0
VERTEX
  8
Data_PATH_09007_1_Final
 10
698821.44
 20
4560353.78
 30
0.0
  0
VERTEX
  8
Data_PATH_09007_1_Final
 10
698782.704
 20
4560395.48
 30
0.0
  0
VERTEX
  8
Data_PATH_09007_1_Final
 10
698705.755
 20
4560480.62
 30
0.0
  0
VERTEX
  8
Data_PATH_09007_1_Final
 10
698627.539
 20
4560562.18
 30
0.0
  0
VERTEX
  8
Data_PATH_09007_1_Final
 10
698549.338
 20
4560642.16
 30
0.0
  0
VERTEX
  8
Data_PATH_09007_1_Final
 10
698426.837
 20
4560770.31
 30
0.0
  0
VERTEX
  8
Data_PATH_09007_1_Final
 10
698387.06
 20
4560810.65
 30
0.0
  0
VERTEX
  8
Data_PATH_09007_1_Final
 10
698217.175
 20
4560975.7
 30
0.0
  0
VERTEX
  8
Data_PATH_09007_1_Final
 10
697954.001
 20
4561248.44
 30
0.0
  0
VERTEX
  8
Data_PATH_09007_1_Final
 10
697911.86
 20
4561294.94
 30
0.0
  0
VERTEX
  8
Data_PATH_09007_1_Final
 10
697871.394
 20
4561342.77
 30
0.0
  0
VERTEX
  8
Data_PATH_09007_1_Final
 10
697790.567
 20
4561441.98
 30
0.0
  0
VERTEX
  8
Data_PATH_09007_1_Final
 10
697710.075
 20
4561537.35
 30
0.0
  0
VERTEX
  8
Data_PATH_09007_1_Final
 10
697594.764
 20
4561672.85
 30
0.0
  0
VERTEX
  8
Data_PATH_09007_1_Final
 10
697555.51
 20
4561716.87
 30
0.0
  0
VERTEX
  8
Data_PATH_09007_1_Final
 10
697514.666
 20
4561759.57
 30
0.0
  0
VERTEX
  8
Data_PATH_09007_1_Final
 10
697430.316
 20
4561840.82
 30
0.0
  0
VERTEX
  8
Data_PATH_09007_1_Final
 10
697389.496
 20
4561881.45
 30
0.0
  0
VERTEX
  8
Data_PATH_09007_1_Final
 10
697350.451
 20
4561923.28
 30
0.0
  0
VERTEX
  8
Data_PATH_09007_1_Final
 10
697270.836
 20
4562011.83
 30
0.0
  0
VERTEX
  8
Data_PATH_09007_1_Final
 10
697227.982
 20
4562055.59
 30
0.0
  0
VERTEX
  8
Data_PATH_09007_1_Final
 10
697139.804
 20
4562138.28
 30
0.0
  0
VERTEX
  8
Data_PATH_09007_1_Final
 10
697097.507
 20
4562179.36
 30
0.0
  0
VERTEX
  8
Data_PATH_09007_1_Final
 10
696973.28
 20
4562309.35
 30
0.0
  0
VERTEX
  8
Data_PATH_09007_1_Final
 10
696886.552
 20
4562395.54
 30
0.0
  0
VERTEX
  8
Data_PATH_09007_1_Final
 10
696799.908
 20
4562483.08
 30
0.0
  0
VERTEX
  8
Data_PATH_09007_1_Final
 10
696714.247
 20
4562572.72
 30
0.0
  0
VERTEX
  8
Data_PATH_09007_1_Final
 10
696538.74
 20
4562747.39
 30
0.0
  0
VERTEX
  8
Data_PATH_09007_1_Final
 10
696431.599
 20
4562855.36
 30
0.0
  0
SEQEND
  8
Data_PATH_09007_1_Final
  0
TEXT
  8
Data_PATH_09007_1_Final
 10
696814.107
 20
4562858.08
 30
0.0
  1
L10160 E
 11
696814.107
 21
4562858.08
 31
0.0
 40
59.9999929
 41
1
 50
-46.093
 51
0
 71
0
 62
7
  7
ARIAL
 72
2
 73
0
  0
TEXT
  8
Data_PATH_09007_1_Final
 10
703103.433
 20
4556324.02
 30
0.0
  1
L10160 E
 11
703103.433
 21
4556324.02
 31
0.0
 40
59.9999929
 41
1
 50
-46.093
 51
0
 71
0
 62
7
  7
ARIAL
  0
POLYLINE
  8
Data_PATH_09007_1_Final
 66
1
 40
3.59999957
 41
3.59999957
 62
7
 10
696869.008
 20
4562844.31
 30
0.0
  0
VERTEX
  8
Data_PATH_09007_1_Final
 10
696869.008
 20
4562844.31
 30
0.0
  0
VERTEX
  8
Data_PATH_09007_1_Final
 10
696911.707
 20
4562800.19
 30
0.0
  0
VERTEX
  8
Data_PATH_09007_1_Final
 10
696952.009
 20
4562755.57
 30
0.0
  0
VERTEX
  8
Data_PATH_09007_1_Final
 10
696987.829
 20
4562714.05
 30
0.0
  0
VERTEX
  8
Data_PATH_09007_1_Final
 10
697022.674
 20
4562675.2
 30
0.0
  0
VERTEX
  8
Data_PATH_09007_1_Final
 10
697060.249
 20
4562636.52
 30
0.0
  0
VERTEX
  8
Data_PATH_09007_1_Final
 10
697102.099
 20
4562595.31
 30
0.0
  0
VERTEX
  8
Data_PATH_09007_1_Final
 10
697143.732
 20
4562552.39
 30
0.0
  0
VERTEX
  8
Data_PATH_09007_1_Final
 10
697163.131
 20
4562531.01
 30
0.0
  0
VERTEX
  8
Data_PATH_09007_1_Final
 10
697244.71
 20
4562431.2
 30
0.0
  0
VERTEX
  8
Data_PATH_09007_1_Final
 10
697281.385
 20
4562391.31
 30
0.0
  0
VERTEX
  8
Data_PATH_09007_1_Final
 10
697363.921
 20
4562308.58
 30
0.0
  0
VERTEX
  8
Data_PATH_09007_1_Final
 10
697401.351
 20
4562269.29
 30
0.0
  0
VERTEX
  8
Data_PATH_09007_1_Final
 10
697472.478
 20
4562192.15
 30
0.0
  0
VERTEX
  8
Data_PATH_09007_1_Final
 10
697510.771
 20
4562152.92
 30
0.0
  0
VERTEX
  8
Data_PATH_09007_1_Final
 10
697588.825
 20
4562076.91
 30
0.0
  0
VERTEX
  8
Data_PATH_09007_1_Final
 10
697660.185
 20
4562004.83
 30
0.0
  0
VERTEX
  8
Data_PATH_09007_1_Final
 10
697736.387
 20
4561925.57
 30
0.0
  0
VERTEX
  8
Data_PATH_09007_1_Final
 10
697815.645
 20
4561848.65
 30
0.0
  0
VERTEX
  8
Data_PATH_09007_1_Final
 10
697854.416
 20
4561810.01
 30
0.0
  0
VERTEX
  8
Data_PATH_09007_1_Final
 10
697893.215
 20
4561769.59
 30
0.0
  0
VERTEX
  8
Data_PATH_09007_1_Final
 10
698086.4
 20
4561563.21
 30
0.0
  0
VERTEX
  8
Data_PATH_09007_1_Final
 10
698163.103
 20
4561476.33
 30
0.0
  0
VERTEX
  8
Data_PATH_09007_1_Final
 10
698200.586
 20
4561435.28
 30
0.0
  0
VERTEX
  8
Data_PATH_09007_1_Final
 10
698239.443
 20
4561396.3
 30
0.0
  0
VERTEX
  8
Data_PATH_09007_1_Final
 10
698323.93
 20
4561316.04
 30
0.0
  0
VERTEX
  8
Data_PATH_09007_1_Final
 10
698365.355
 20
4561273.09
 30
0.0
  0
VERTEX
  8
Data_PATH_09007_1_Final
 10
698438.863
 20
4561190.29
 30
0.0
  0
VERTEX
  8
Data_PATH_09007_1_Final
 10
698475.841
 20
4561152.26
 30
0.0
  0
VERTEX
  8
Data_PATH_09007_1_Final
 10
698516.79
 20
4561115.5
 30
0.0
  0
VERTEX
  8
Data_PATH_09007_1_Final
 10
698559.792
 20
4561078.38
 30
0.0
  0
VERTEX
  8
Data_PATH_09007_1_Final
 10
698601.206
 20
4561040.44
 30
0.0
  0
VERTEX
  8
Data_PATH_09007_1_Final
 10
698636.661
 20
4561003.27
 30
0.0
  0
VERTEX
  8
Data_PATH_09007_1_Final
 10
698702.355
 20
4560928.37
 30
0.0
  0
VERTEX
  8
Data_PATH_09007_1_Final
 10
698738.035
 20
4560890.82
 30
0.0
  0
VERTEX
  8
Data_PATH_09007_1_Final
 10
698810.657
 20
4560817.36
 30
0.0
  0
VERTEX
  8
Data_PATH_09007_1_Final
 10
698844.181
 20
4560780.5
 30
0.0
  0
VERTEX
  8
Data_PATH_09007_1_Final
 10
698874.529
 20
4560742.87
 30
0.0
  0
VERTEX
  8
Data_PATH_09007_1_Final
 10
698934.319
 20
4560663.25
 30
0.0
  0
VERTEX
  8
Data_PATH_09007_1_Final
 10
698967.349
 20
4560622.47
 30
0.0
  0
VERTEX
  8
Data_PATH_09007_1_Final
 10
699106.517
 20
4560458.87
 30
0.0
  0
VERTEX
  8
Data_PATH_09007_1_Final
 10
699143.63
 20
4560417.77
 30
0.0
  0
VERTEX
  8
Data_PATH_09007_1_Final
 10
699184.474
 20
4560376.71
 30
0.0
  0
VERTEX
  8
Data_PATH_09007_1_Final
 10
699225.813
 20
4560338.32
 30
0.0
  0
VERTEX
  8
Data_PATH_09007_1_Final
 10
699301.981
 20
4560270.08
 30
0.0
  0
VERTEX
  8
Data_PATH_09007_1_Final
 10
699416.439
 20
4560159.54
 30
0.0
  0
VERTEX
  8
Data_PATH_09007_1_Final
 10
699455.883
 20
4560123.07
 30
0.0
  0
VERTEX
  8
Data_PATH_09007_1_Final
 10
699573.904
 20
4560018.67
 30
0.0
  0
VERTEX
  8
Data_PATH_09007_1_Final
 10
699613.143
 20
4559980.58
 30
0.0
  0
VERTEX
  8
Data_PATH_09007_1_Final
 10
699650.917
 20
4559940.36
 30
0.0
  0
VERTEX
  8
Data_PATH_09007_1_Final
 10
699721.177
 20
4559858.37
 30
0.0
  0
VERTEX
  8
Data_PATH_09007_1_Final
 10
699757.513
 20
4559819.04
 30
0.0
  0
VERTEX
  8
Data_PATH_09007_1_Final
 10
699797.22
 20
4559780.64
 30
0.0
  0
VERTEX
  8
Data_PATH_09007_1_Final
 10
699878.704
 20
4559704.5
 30
0.0
  0
VERTEX
  8
Data_PATH_09007_1_Final
 10
699915.872
 20
4559665.14
 30
0.0
  0
VERTEX
  8
Data_PATH_09007_1_Final
 10
699950.195
 20
4559625.01
 30
0.0
  0
VERTEX
  8
Data_PATH_09007_1_Final
 10
699983.271
 20
4559583.5
 30
0.0
  0
VERTEX
  8
Data_PATH_09007_1_Final
 10
700017.21
 20
4559542.66
 30
0.0
  0
VERTEX
  8
Data_PATH_09007_1_Final
 10
700052.715
 20
4559503.28
 30
0.0
  0
VERTEX
  8
Data_PATH_09007_1_Final
 10
700090.165
 20
4559463.94
 30
0.0
  0
VERTEX
  8
Data_PATH_09007_1_Final
 10
700127.214
 20
4559423.38
 30
0.0
  0
VERTEX
  8
Data_PATH_09007_1_Final
 10
700162.155
 20
4559380.82
 30
0.0
  0
VERTEX
  8
Data_PATH_09007_1_Final
 10
700227.475
 20
4559295.36
 30
0.0
  0
VERTEX
  8
Data_PATH_09007_1_Final
 10
700245.002
 20
4559275.4
 30
0.0
  0
VERTEX
  8
Data_PATH_09007_1_Final
 10
700263.739
 20
4559255.93
 30
0.0
  0
VERTEX
  8
Data_PATH_09007_1_Final
 10
700304.678
 20
4559217.52
 30
0.0
  0
VERTEX
  8
Data_PATH_09007_1_Final
 10
700348.009
 20
4559179.13
 30
0.0
  0
VERTEX
  8
Data_PATH_09007_1_Final
 10
700389.8
 20
4559140.47
 30
0.0
  0
VERTEX
  8
Data_PATH_09007_1_Final
 10
700428.544
 20
4559101.41
 30
0.0
  0
VERTEX
  8
Data_PATH_09007_1_Final
 10
700520.856
 20
4558996.51
 30
0.0
  0
VERTEX
  8
Data_PATH_09007_1_Final
 10
700540.628
 20
4558976.29
 30
0.0
  0
VERTEX
  8
Data_PATH_09007_1_Final
 10
700581.368
 20
4558937.88
 30
0.0
  0
VERTEX
  8
Data_PATH_09007_1_Final
 10
700623.662
 20
4558900.26
 30
0.0
  0
VERTEX
  8
Data_PATH_09007_1_Final
 10
700666.411
 20
4558860.69
 30
0.0
  0
VERTEX
  8
Data_PATH_09007_1_Final
 10
700708.08
 20
4558818.97
 30
0.0
  0
VERTEX
  8
Data_PATH_09007_1_Final
 10
700788.231
 20
4558733.09
 30
0.0
  0
VERTEX
  8
Data_PATH_09007_1_Final
 10
700829.388
 20
4558691.06
 30
0.0
  0
VERTEX
  8
Data_PATH_09007_1_Final
 10
700913.985
 20
4558610.01
 30
0.0
  0
VERTEX
  8
Data_PATH_09007_1_Final
 10
700934.693
 20
4558589.19
 30
0.0
  0
VERTEX
  8
Data_PATH_09007_1_Final
 10
700954.61
 20
4558567.81
 30
0.0
  0
VERTEX
  8
Data_PATH_09007_1_Final
 10
700992.599
 20
4558523.81
 30
0.0
  0
VERTEX
  8
Data_PATH_09007_1_Final
 10
701065.627
 20
4558434.77
 30
0.0
  0
VERTEX
  8
Data_PATH_09007_1_Final
 10
701103.788
 20
4558392.52
 30
0.0
  0
VERTEX
  8
Data_PATH_09007_1_Final
 10
701184.891
 20
4558310.58
 30
0.0
  0
VERTEX
  8
Data_PATH_09007_1_Final
 10
701224.903
 20
4558268.35
 30
0.0
  0
VERTEX
  8
Data_PATH_09007_1_Final
 10
701261.457
 20
4558227.3
 30
0.0
  0
VERTEX
  8
Data_PATH_09007_1_Final
 10
701330.37
 20
4558142.8
 30
0.0
  0
VERTEX
  8
Data_PATH_09007_1_Final
 10
701367.55
 20
4558098.82
 30
0.0
  0
VERTEX
  8
Data_PATH_09007_1_Final
 10
701408.002
 20
4558054.34
 30
0.0
  0
VERTEX
  8
Data_PATH_09007_1_Final
 10
701450.302
 20
4558012.29
 30
0.0
  0
VERTEX
  8
Data_PATH_09007_1_Final
 10
701492.396
 20
4557973.78
 30
0.0
  0
VERTEX
  8
Data_PATH_09007_1_Final
 10
701534.954
 20
4557936.63
 30
0.0
  0
VERTEX
  8
Data_PATH_09007_1_Final
 10
701577.527
 20
4557897.53
 30
0.0
  0
VERTEX
  8
Data_PATH_09007_1_Final
 10
701619.718
 20
4557855.44
 30
0.0
  0
VERTEX
  8
Data_PATH_09007_1_Final
 10
701697.336
 20
4557768.8
 30
0.0
  0
VERTEX
  8
Data_PATH_09007_1_Final
 10
701735.529
 20
4557728.13
 30
0.0
  0
VERTEX
  8
Data_PATH_09007_1_Final
 10
701816.298
 20
4557649.99
 30
0.0
  0
VERTEX
  8
Data_PATH_09007_1_Final
 10
701855.605
 20
4557609.87
 30
0.0
  0
VERTEX
  8
Data_PATH_09007_1_Final
 10
701929.175
 20
4557527.53
 30
0.0
  0
VERTEX
  8
Data_PATH_09007_1_Final
 10
701965.77
 20
4557488.34
 30
0.0
  0
VERTEX
  8
Data_PATH_09007_1_Final
 10
702004.397
 20
4557450.3
 30
0.0
  0
VERTEX
  8
Data_PATH_09007_1_Final
 10
702083.158
 20
4557375.79
 30
0.0
  0
VERTEX
  8
Data_PATH_09007_1_Final
 10
702119.739
 20
4557337.97
 30
0.0
  0
VERTEX
  8
Data_PATH_09007_1_Final
 10
702190.798
 20
4557260.48
 30
0.0
  0
VERTEX
  8
Data_PATH_09007_1_Final
 10
702228.412
 20
4557221.4
 30
0.0
  0
VERTEX
  8
Data_PATH_09007_1_Final
 10
702304.41
 20
4557147.09
 30
0.0
  0
VERTEX
  8
Data_PATH_09007_1_Final
 10
702340.632
 20
4557110.47
 30
0.0
  0
VERTEX
  8
Data_PATH_09007_1_Final
 10
702376.412
 20
4557072.44
 30
0.0
  0
VERTEX
  8
Data_PATH_09007_1_Final
 10
702486.558
 20
4556952.38
 30
0.0
  0
VERTEX
  8
Data_PATH_09007_1_Final
 10
702524.09
 20
4556915.36
 30
0.0
  0
VERTEX
  8
Data_PATH_09007_1_Final
 10
702543.898
 20
4556897.62
 30
0.0
  0
VERTEX
  8
Data_PATH_09007_1_Final
 10
702564.57
 20
4556880.43
 30
0.0
  0
VERTEX
  8
Data_PATH_09007_1_Final
 10
702586.524
 20
4556864.06
 30
0.0
  0
VERTEX
  8
Data_PATH_09007_1_Final
 10
702609.478
 20
4556848.31
 30
0.0
  0
VERTEX
  8
Data_PATH_09007_1_Final
 10
702657.272
 20
4556818.82
 30
0.0
  0
VERTEX
  8
Data_PATH_09007_1_Final
 10
702752.125
 20
4556764.33
 30
0.0
  0
VERTEX
  8
Data_PATH_09007_1_Final
 10
702797.333
 20
4556734.8
 30
0.0
  0
VERTEX
  8
Data_PATH_09007_1_Final
 10
702819.035
 20
4556718.64
 30
0.0
  0
VERTEX
  8
Data_PATH_09007_1_Final
 10
702839.982
 20
4556701.5
 30
0.0
  0
VERTEX
  8
Data_PATH_09007_1_Final
 10
702860.137
 20
4556683.58
 30
0.0
  0
VERTEX
  8
Data_PATH_09007_1_Final
 10
702879.504
 20
4556664.94
 30
0.0
  0
VERTEX
  8
Data_PATH_09007_1_Final
 10
702898.128
 20
4556645.54
 30
0.0
  0
VERTEX
  8
Data_PATH_09007_1_Final
 10
702915.695
 20
4556625.29
 30
0.0
  0
VERTEX
  8
Data_PATH_09007_1_Final
 10
702932.494
 20
4556604.45
 30
0.0
  0
VERTEX
  8
Data_PATH_09007_1_Final
 10
702948.436
 20
4556582.99
 30
0.0
  0
VERTEX
  8
Data_PATH_09007_1_Final
 10
702963.477
 20
4556560.92
 30
0.0
  0
VERTEX
  8
Data_PATH_09007_1_Final
 10
702977.615
 20
4556538.23
 30
0.0
  0
VERTEX
  8
Data_PATH_09007_1_Final
 10
703017.559
 20
4556469.71
 30
0.0
  0
VERTEX
  8
Data_PATH_09007_1_Final
 10
703032.062
 20
4556447.59
 30
0.0
  0
VERTEX
  8
Data_PATH_09007_1_Final
 10
703047.904
 20
4556426.16
 30
0.0
  0
VERTEX
  8
Data_PATH_09007_1_Final
 10
703065.536
 20
4556406.01
 30
0.0
  0
VERTEX
  8
Data_PATH_09007_1_Final
 10
703091.76
 20
4556379.41
 30
0.0
  0
SEQEND
  8
Data_PATH_09007_1_Final
  0
TEXT
  8
Data_PATH_09007_1_Final
 10
697148.792
 20
4562895.41
 30
0.0
  1
L10170 E
 11
697148.792
 21
4562895.41
 31
0.0
 40
59.9999929
 41
1
 50
-46.384
 51
0
 71
0
 62
7
  7
ARIAL
 72
2
 73
0
  0
TEXT
  8
Data_PATH_09007_1_Final
 10
703226.775
 20
4556516.47
 30
0.0
  1
L10170 E
 11
703226.775
 21
4556516.47
 31
0.0
 40
59.9999929
 41
1
 50
-46.384
 51
0
 71
0
 62
7
  7
ARIAL
  0
POLYLINE
  8
Data_PATH_09007_1_Final
 66
1
 40
3.59999957
 41
3.59999957
 62
7
 10
703215.383
 20
4556571.92
 30
0.0
  0
VERTEX
  8
Data_PATH_09007_1_Final
 10
703215.383
 20
4556571.92
 30
0.0
  0
VERTEX
  8
Data_PATH_09007_1_Final
 10
703176.646
 20
4556618.72
 30
0.0
  0
VERTEX
  8
Data_PATH_09007_1_Final
 10
703139.388
 20
4556666.59
 30
0.0
  0
VERTEX
  8
Data_PATH_09007_1_Final
 10
703067.042
 20
4556767.85
 30
0.0
  0
VERTEX
  8
Data_PATH_09007_1_Final
 10
703030.373
 20
4556817.4
 30
0.0
  0
VERTEX
  8
Data_PATH_09007_1_Final
 10
702993.095
 20
4556863.04
 30
0.0
  0
VERTEX
  8
Data_PATH_09007_1_Final
 10
702954.722
 20
4556906.03
 30
0.0
  0
VERTEX
  8
Data_PATH_09007_1_Final
 10
702913.277
 20
4556947.94
 30
0.0
  0
VERTEX
  8
Data_PATH_09007_1_Final
 10
702823.302
 20
4557032.74
 30
0.0
  0
VERTEX
  8
Data_PATH_09007_1_Final
 10
702695.757
 20
4557156.36
 30
0.0
  0
VERTEX
  8
Data_PATH_09007_1_Final
 10
702652.977
 20
4557195.87
 30
0.0
  0
VERTEX
  8
Data_PATH_09007_1_Final
 10
702561.805
 20
4557276.93
 30
0.0
  0
VERTEX
  8
Data_PATH_09007_1_Final
 10
702515.794
 20
4557319.49
 30
0.0
  0
VERTEX
  8
Data_PATH_09007_1_Final
 10
702302.142
 20
4557529.46
 30
0.0
  0
VERTEX
  8
Data_PATH_09007_1_Final
 10
702218.407
 20
4557615.05
 30
0.0
  0
VERTEX
  8
Data_PATH_09007_1_Final
 10
702057.169
 20
4557783.39
 30
0.0
  0
VERTEX
  8
Data_PATH_09007_1_Final
 10
701933.881
 20
4557906.09
 30
0.0
  0
VERTEX
  8
Data_PATH_09007_1_Final
 10
701892.677
 20
4557948.43
 30
0.0
  0
VERTEX
  8
Data_PATH_09007_1_Final
 10
701853.029
 20
4557992.55
 30
0.0
  0
VERTEX
  8
Data_PATH_09007_1_Final
 10
701815.294
 20
4558038.01
 30
0.0
  0
VERTEX
  8
Data_PATH_09007_1_Final
 10
701779.113
 20
4558083.19
 30
0.0
  0
VERTEX
  8
Data_PATH_09007_1_Final
 10
701743.623
 20
4558125.48
 30
0.0
  0
VERTEX
  8
Data_PATH_09007_1_Final
 10
701706.787
 20
4558165.71
 30
0.0
  0
VERTEX
  8
Data_PATH_09007_1_Final
 10
701668.17
 20
4558206.43
 30
0.0
  0
VERTEX
  8
Data_PATH_09007_1_Final
 10
701630.187
 20
4558248.91
 30
0.0
  0
VERTEX
  8
Data_PATH_09007_1_Final
 10
701557.818
 20
4558335.34
 30
0.0
  0
VERTEX
  8
Data_PATH_09007_1_Final
 10
701520.898
 20
4558376.57
 30
0.0
  0
VERTEX
  8
Data_PATH_09007_1_Final
 10
701407.037
 20
4558492.52
 30
0.0
  0
VERTEX
  8
Data_PATH_09007_1_Final
 10
701293.712
 20
4558615.16
 30
0.0
  0
VERTEX
  8
Data_PATH_09007_1_Final
 10
701254.907
 20
4558654.08
 30
0.0
  0
VERTEX
  8
Data_PATH_09007_1_Final
 10
701172.625
 20
4558729.86
 30
0.0
  0
VERTEX
  8
Data_PATH_09007_1_Final
 10
701131.993
 20
4558769.6
 30
0.0
  0
VERTEX
  8
Data_PATH_09007_1_Final
 10
701093.205
 20
4558811.34
 30
0.0
  0
VERTEX
  8
Data_PATH_09007_1_Final
 10
701017.321
 20
4558897.95
 30
0.0
  0
VERTEX
  8
Data_PATH_09007_1_Final
 10
700978.377
 20
4558939.44
 30
0.0
  0
VERTEX
  8
Data_PATH_09007_1_Final
 10
700898.339
 20
4559019.63
 30
0.0
  0
VERTEX
  8
Data_PATH_09007_1_Final
 10
700856.861
 20
4559062.32
 30
0.0
  0
VERTEX
  8
Data_PATH_09007_1_Final
 10
700815.538
 20
4559107.98
 30
0.0
  0
VERTEX
  8
Data_PATH_09007_1_Final
 10
700775.173
 20
4559154.33
 30
0.0
  0
VERTEX
  8
Data_PATH_09007_1_Final
 10
700735.348
 20
4559198.31
 30
0.0
  0
VERTEX
  8
Data_PATH_09007_1_Final
 10
700695.493
 20
4559239.36
 30
0.0
  0
VERTEX
  8
Data_PATH_09007_1_Final
 10
700611.727
 20
4559323.16
 30
0.0
  0
VERTEX
  8
Data_PATH_09007_1_Final
 10
700525.791
 20
4559413.58
 30
0.0
  0
VERTEX
  8
Data_PATH_09007_1_Final
 10
700482.592
 20
4559457.56
 30
0.0
  0
VERTEX
  8
Data_PATH_09007_1_Final
 10
700438.08
 20
4559500.01
 30
0.0
  0
VERTEX
  8
Data_PATH_09007_1_Final
 10
700345.218
 20
4559583.84
 30
0.0
  0
VERTEX
  8
Data_PATH_09007_1_Final
 10
700299.891
 20
4559627.48
 30
0.0
  0
VERTEX
  8
Data_PATH_09007_1_Final
 10
700277.839
 20
4559650.25
 30
0.0
  0
VERTEX
  8
Data_PATH_09007_1_Final
 10
700179.013
 20
4559762.16
 30
0.0
  0
VERTEX
  8
Data_PATH_09007_1_Final
 10
700063.736
 20
4559883.86
 30
0.0
  0
VERTEX
  8
Data_PATH_09007_1_Final
 10
700023.003
 20
4559929.89
 30
0.0
  0
VERTEX
  8
Data_PATH_09007_1_Final
 10
699945.182
 20
4560021.21
 30
0.0
  0
VERTEX
  8
Data_PATH_09007_1_Final
 10
699906.636
 20
4560063.36
 30
0.0
  0
VERTEX
  8
Data_PATH_09007_1_Final
 10
699886.649
 20
4560083.51
 30
0.0
  0
VERTEX
  8
Data_PATH_09007_1_Final
 10
699777.031
 20
4560183.59
 30
0.0
  0
VERTEX
  8
Data_PATH_09007_1_Final
 10
699734.246
 20
4560225.52
 30
0.0
  0
VERTEX
  8
Data_PATH_09007_1_Final
 10
699653.98
 20
4560307.41
 30
0.0
  0
VERTEX
  8
Data_PATH_09007_1_Final
 10
699612.027
 20
4560347.17
 30
0.0
  0
VERTEX
  8
Data_PATH_09007_1_Final
 10
699522.709
 20
4560427.56
 30
0.0
  0
VERTEX
  8
Data_PATH_09007_1_Final
 10
699480.056
 20
4560469.18
 30
0.0
  0
VERTEX
  8
Data_PATH_09007_1_Final
 10
699402.163
 20
4560553.59
 30
0.0
  0
VERTEX
  8
Data_PATH_09007_1_Final
 10
699362.846
 20
4560594.97
 30
0.0
  0
VERTEX
  8
Data_PATH_09007_1_Final
 10
699281.908
 20
4560675.83
 30
0.0
  0
VERTEX
  8
Data_PATH_09007_1_Final
 10
699242.742
 20
4560717.04
 30
0.0
  0
VERTEX
  8
Data_PATH_09007_1_Final
 10
699166.587
 20
4560802.11
 30
0.0
  0
VERTEX
  8
Data_PATH_09007_1_Final
 10
699127.013
 20
4560843.2
 30
0.0
  0
VERTEX
  8
Data_PATH_09007_1_Final
 10
699047.528
 20
4560921.85
 30
0.0
  0
VERTEX
  8
Data_PATH_09007_1_Final
 10
699028.805
 20
4560942.01
 30
0.0
  0
VERTEX
  8
Data_PATH_09007_1_Final
 10
699010.793
 20
4560962.84
 30
0.0
  0
VERTEX
  8
Data_PATH_09007_1_Final
 10
698993.454
 20
4560984.44
 30
0.0
  0
VERTEX
  8
Data_PATH_09007_1_Final
 10
698943.444
 20
4561053.15
 30
0.0
  0
VERTEX
  8
Data_PATH_09007_1_Final
 10
698908.014
 20
4561098.21
 30
0.0
  0
VERTEX
  8
Data_PATH_09007_1_Final
 10
698889.381
 20
4561119.62
 30
0.0
  0
VERTEX
  8
Data_PATH_09007_1_Final
 10
698869.741
 20
4561139.92
 30
0.0
  0
VERTEX
  8
Data_PATH_09007_1_Final
 10
698787.134
 20
4561216.79
 30
0.0
  0
VERTEX
  8
Data_PATH_09007_1_Final
 10
698747.335
 20
4561256.37
 30
0.0
  0
VERTEX
  8
Data_PATH_09007_1_Final
 10
698670.221
 20
4561339.8
 30
0.0
  0
VERTEX
  8
Data_PATH_09007_1_Final
 10
698629.595
 20
4561381.28
 30
0.0
  0
VERTEX
  8
Data_PATH_09007_1_Final
 10
698543.93
 20
4561462.89
 30
0.0
  0
VERTEX
  8
Data_PATH_09007_1_Final
 10
698501.799
 20
4561505.12
 30
0.0
  0
VERTEX
  8
Data_PATH_09007_1_Final
 10
698461.863
 20
4561549.23
 30
0.0
  0
VERTEX
  8
Data_PATH_09007_1_Final
 10
698422.156
 20
4561594.77
 30
0.0
  0
VERTEX
  8
Data_PATH_09007_1_Final
 10
698381.169
 20
4561639.71
 30
0.0
  0
VERTEX
  8
Data_PATH_09007_1_Final
 10
698359.547
 20
4561661.01
 30
0.0
  0
VERTEX
  8
Data_PATH_09007_1_Final
 10
698337.391
 20
4561681.44
 30
0.0
  0
VERTEX
  8
Data_PATH_09007_1_Final
 10
698291.619
 20
4561719.99
 30
0.0
  0
VERTEX
  8
Data_PATH_09007_1_Final
 10
698244.641
 20
4561756.94
 30
0.0
  0
VERTEX
  8
Data_PATH_09007_1_Final
 10
698198.951
 20
4561794.79
 30
0.0
  0
VERTEX
  8
Data_PATH_09007_1_Final
 10
698155.607
 20
4561833.55
 30
0.0
  0
VERTEX
  8
Data_PATH_09007_1_Final
 10
698112.983
 20
4561873.74
 30
0.0
  0
VERTEX
  8
Data_PATH_09007_1_Final
 10
698068.581
 20
4561913.88
 30
0.0
  0
VERTEX
  8
Data_PATH_09007_1_Final
 10
697974.818
 20
4561990.78
 30
0.0
  0
VERTEX
  8
Data_PATH_09007_1_Final
 10
697952.222
 20
4562010.19
 30
0.0
  0
VERTEX
  8
Data_PATH_09007_1_Final
 10
697930.576
 20
4562030.37
 30
0.0
  0
VERTEX
  8
Data_PATH_09007_1_Final
 10
697910.674
 20
4562052.24
 30
0.0
  0
VERTEX
  8
Data_PATH_09007_1_Final
 10
697883.017
 20
4562087.63
 30
0.0
  0
VERTEX
  8
Data_PATH_09007_1_Final
 10
697859.03
 20
4562126.84
 30
0.0
  0
VERTEX
  8
Data_PATH_09007_1_Final
 10
697816.314
 20
4562208.12
 30
0.0
  0
VERTEX
  8
Data_PATH_09007_1_Final
 10
697801.888
 20
4562234.18
 30
0.0
  0
VERTEX
  8
Data_PATH_09007_1_Final
 10
697786.792
 20
4562259.35
 30
0.0
  0
VERTEX
  8
Data_PATH_09007_1_Final
 10
697770.712
 20
4562283.64
 30
0.0
  0
VERTEX
  8
Data_PATH_09007_1_Final
 10
697752.784
 20
4562306.9
 30
0.0
  0
VERTEX
  8
Data_PATH_09007_1_Final
 10
697733.43
 20
4562329.6
 30
0.0
  0
VERTEX
  8
Data_PATH_09007_1_Final
 10
697712.849
 20
4562351.88
 30
0.0
  0
VERTEX
  8
Data_PATH_09007_1_Final
 10
697669.594
 20
4562395.84
 30
0.0
  0
VERTEX
  8
Data_PATH_09007_1_Final
 10
697628.58
 20
4562439.21
 30
0.0
  0
VERTEX
  8
Data_PATH_09007_1_Final
 10
697551.904
 20
4562525.56
 30
0.0
  0
VERTEX
  8
Data_PATH_09007_1_Final
 10
697509.922
 20
4562569.91
 30
0.0
  0
VERTEX
  8
Data_PATH_09007_1_Final
 10
697421.93
 20
4562658.33
 30
0.0
  0
VERTEX
  8
Data_PATH_09007_1_Final
 10
697381.279
 20
4562701.39
 30
0.0
  0
VERTEX
  8
Data_PATH_09007_1_Final
 10
697341.906
 20
4562744.71
 30
0.0
  0
VERTEX
  8
Data_PATH_09007_1_Final
 10
697300.828
 20
4562788.05
 30
0.0
  0
VERTEX
  8
Data_PATH_09007_1_Final
 10
697257.405
 20
4562830.91
 30
0.0
  0
VERTEX
  8
Data_PATH_09007_1_Final
 10
697203.623
 20
4562881.35
 30
0.0
  0
SEQEND
  8
Data_PATH_09007_1_Final
  0
TEXT
  8
Data_PATH_09007_1_Final
 10
697561.492
 20
4562879.64
 30
0.0
  1
L10180 E
 11
697561.492
 21
4562879.64
 31
0.0
 40
59.9999929
 41
1
 50
-46.248
 51
0
 71
0
 62
7
  7
ARIAL
 72
2
 73
0
  0
TEXT
  8
Data_PATH_09007_1_Final
 10
703446.861
 20
4556732.19
 30
0.0
  1
L10180 E
 11
703446.861
 21
4556732.19
 31
0.0
 40
59.9999929
 41
1
 50
-46.248
 51
0
 71
0
 62
7
  7
ARIAL
  0
POLYLINE
  8
Data_PATH_09007_1_Final
 66
1
 40
3.59999957
 41
3.59999957
 62
7
 10
697616.356
 20
4562865.71
 30
0.0
  0
VERTEX
  8
Data_PATH_09007_1_Final
 10
697616.356
 20
4562865.71
 30
0.0
  0
VERTEX
  8
Data_PATH_09007_1_Final
 10
697648.53
 20
4562823.58
 30
0.0
  0
VERTEX
  8
Data_PATH_09007_1_Final
 10
697681.031
 20
4562782.77
 30
0.0
  0
VERTEX
  8
Data_PATH_09007_1_Final
 10
697697.88
 20
4562763.33
 30
0.0
  0
VERTEX
  8
Data_PATH_09007_1_Final
 10
697715.45
 20
4562744.77
 30
0.0
  0
VERTEX
  8
Data_PATH_09007_1_Final
 10
697752.223
 20
4562708.99
 30
0.0
  0
VERTEX
  8
Data_PATH_09007_1_Final
 10
697790.928
 20
4562672.91
 30
0.0
  0
VERTEX
  8
Data_PATH_09007_1_Final
 10
697829.995
 20
4562634.66
 30
0.0
  0
VERTEX
  8
Data_PATH_09007_1_Final
 10
697868.048
 20
4562594.61
 30
0.0
  0
VERTEX
  8
Data_PATH_09007_1_Final
 10
697938.028
 20
4562518.29
 30
0.0
  0
VERTEX
  8
Data_PATH_09007_1_Final
 10
697974.089
 20
4562481.1
 30
0.0
  0
VERTEX
  8
Data_PATH_09007_1_Final
 10
698092.139
 20
4562366.03
 30
0.0
  0
VERTEX
  8
Data_PATH_09007_1_Final
 10
698128.926
 20
4562328.2
 30
0.0
  0
VERTEX
  8
Data_PATH_09007_1_Final
 10
698163.806
 20
4562290.29
 30
0.0
  0
VERTEX
  8
Data_PATH_09007_1_Final
 10
698231.454
 20
4562213.05
 30
0.0
  0
VERTEX
  8
Data_PATH_09007_1_Final
 10
698266.838
 20
4562175.14
 30
0.0
  0
VERTEX
  8
Data_PATH_09007_1_Final
 10
698376.422
 20
4562065.33
 30
0.0
  0
VERTEX
  8
Data_PATH_09007_1_Final
 10
698411.375
 20
4562027.19
 30
0.0
  0
VERTEX
  8
Data_PATH_09007_1_Final
 10
698445.686
 20
4561987.52
 30
0.0
  0
VERTEX
  8
Data_PATH_09007_1_Final
 10
698480.61
 20
4561948.2
 30
0.0
  0
VERTEX
  8
Data_PATH_09007_1_Final
 10
698517.453
 20
4561909.62
 30
0.0
  0
VERTEX
  8
Data_PATH_09007_1_Final
 10
698633.757
 20
4561797.46
 30
0.0
  0
VERTEX
  8
Data_PATH_09007_1_Final
 10
698671.379
 20
4561759.07
 30
0.0
  0
VERTEX
  8
Data_PATH_09007_1_Final
 10
698746.619
 20
4561680.06
 30
0.0
  0
VERTEX
  8
Data_PATH_09007_1_Final
 10
698785.224
 20
4561641.91
 30
0.0
  0
VERTEX
  8
Data_PATH_09007_1_Final
 10
698866.57
 20
4561567.9
 30
0.0
  0
VERTEX
  8
Data_PATH_09007_1_Final
 10
698906.433
 20
4561529.17
 30
0.0
  0
VERTEX
  8
Data_PATH_09007_1_Final
 10
698943.065
 20
4561488.12
 30
0.0
  0
VERTEX
  8
Data_PATH_09007_1_Final
 10
698976.856
 20
4561445.61
 30
0.0
  0
VERTEX
  8
Data_PATH_09007_1_Final
 10
699009
 20
4561403.08
 30
0.0
  0
VERTEX
  8
Data_PATH_09007_1_Final
 10
699042.48
 20
4561362.55
 30
0.0
  0
VERTEX
  8
Data_PATH_09007_1_Final
 10
699060.44
 20
4561343.09
 30
0.0
  0
VERTEX
  8
Data_PATH_09007_1_Final
 10
699079.2
 20
4561324.23
 30
0.0
  0
VERTEX
  8
Data_PATH_09007_1_Final
 10
699156.326
 20
4561251.17
 30
0.0
  0
VERTEX
  8
Data_PATH_09007_1_Final
 10
699175.015
 20
4561231.95
 30
0.0
  0
VERTEX
  8
Data_PATH_09007_1_Final
 10
699193.049
 20
4561211.32
 30
0.0
  0
VERTEX
  8
Data_PATH_09007_1_Final
 10
699227.086
 20
4561168.97
 30
0.0
  0
VERTEX
  8
Data_PATH_09007_1_Final
 10
699258.677
 20
4561128.09
 30
0.0
  0
VERTEX
  8
Data_PATH_09007_1_Final
 10
699290.213
 20
4561089.91
 30
0.0
  0
VERTEX
  8
Data_PATH_09007_1_Final
 10
699324.549
 20
4561052.23
 30
0.0
  0
VERTEX
  8
Data_PATH_09007_1_Final
 10
699400.658
 20
4560972.82
 30
0.0
  0
VERTEX
  8
Data_PATH_09007_1_Final
 10
699505.584
 20
4560860.05
 30
0.0
  0
VERTEX
  8
Data_PATH_09007_1_Final
 10
699542.217
 20
4560823.11
 30
0.0
  0
VERTEX
  8
Data_PATH_09007_1_Final
 10
699694.279
 20
4560675.16
 30
0.0
  0
VERTEX
  8
Data_PATH_09007_1_Final
 10
699731.412
 20
4560640.58
 30
0.0
  0
VERTEX
  8
Data_PATH_09007_1_Final
 10
699851.467
 20
4560533.24
 30
0.0
  0
VERTEX
  8
Data_PATH_09007_1_Final
 10
699892.009
 20
4560494.94
 30
0.0
  0
VERTEX
  8
Data_PATH_09007_1_Final
 10
699931.359
 20
4560455.89
 30
0.0
  0
VERTEX
  8
Data_PATH_09007_1_Final
 10
700006.956
 20
4560377.36
 30
0.0
  0
VERTEX
  8
Data_PATH_09007_1_Final
 10
700233.095
 20
4560132.32
 30
0.0
  0
VERTEX
  8
Data_PATH_09007_1_Final
 10
700308.59
 20
4560051.64
 30
0.0
  0
VERTEX
  8
Data_PATH_09007_1_Final
 10
700389.083
 20
4559968.15
 30
0.0
  0
VERTEX
  8
Data_PATH_09007_1_Final
 10
700429.103
 20
4559924.68
 30
0.0
  0
VERTEX
  8
Data_PATH_09007_1_Final
 10
700502.301
 20
4559838.94
 30
0.0
  0
VERTEX
  8
Data_PATH_09007_1_Final
 10
700540.078
 20
4559796.74
 30
0.0
  0
VERTEX
  8
Data_PATH_09007_1_Final
 10
700580.721
 20
4559754.45
 30
0.0
  0
VERTEX
  8
Data_PATH_09007_1_Final
 10
700786.846
 20
4559551.52
 30
0.0
  0
VERTEX
  8
Data_PATH_09007_1_Final
 10
700870.042
 20
4559472.69
 30
0.0
  0
VERTEX
  8
Data_PATH_09007_1_Final
 10
700959.384
 20
4559391.78
 30
0.0
  0
VERTEX
  8
Data_PATH_09007_1_Final
 10
701004.105
 20
4559353.62
 30
0.0
  0
VERTEX
  8
Data_PATH_09007_1_Final
 10
701048.354
 20
4559318.09
 30
0.0
  0
VERTEX
  8
Data_PATH_09007_1_Final
 10
701136.463
 20
4559250.72
 30
0.0
  0
VERTEX
  8
Data_PATH_09007_1_Final
 10
701179.702
 20
4559214.71
 30
0.0
  0
VERTEX
  8
Data_PATH_09007_1_Final
 10
701200.209
 20
4559195.52
 30
0.0
  0
VERTEX
  8
Data_PATH_09007_1_Final
 10
701219.622
 20
4559175.33
 30
0.0
  0
VERTEX
  8
Data_PATH_09007_1_Final
 10
701237.407
 20
4559153.98
 30
0.0
  0
VERTEX
  8
Data_PATH_09007_1_Final
 10
701253.982
 20
4559132.24
 30
0.0
  0
VERTEX
  8
Data_PATH_09007_1_Final
 10
701313.376
 20
4559047.08
 30
0.0
  0
VERTEX
  8
Data_PATH_09007_1_Final
 10
701343.848
 20
4559008.32
 30
0.0
  0
VERTEX
  8
Data_PATH_09007_1_Final
 10
701377.062
 20
4558971.42
 30
0.0
  0
VERTEX
  8
Data_PATH_09007_1_Final
 10
701413.079
 20
4558935.17
 30
0.0
  0
VERTEX
  8
Data_PATH_09007_1_Final
 10
701554.648
 20
4558798.15
 30
0.0
  0
VERTEX
  8
Data_PATH_09007_1_Final
 10
701587.709
 20
4558761.78
 30
0.0
  0
VERTEX
  8
Data_PATH_09007_1_Final
 10
701618.54
 20
4558722.66
 30
0.0
  0
VERTEX
  8
Data_PATH_09007_1_Final
 10
701671.91
 20
4558645.11
 30
0.0
  0
VERTEX
  8
Data_PATH_09007_1_Final
 10
701699.654
 20
4558608.93
 30
0.0
  0
VERTEX
  8
Data_PATH_09007_1_Final
 10
701731.909
 20
4558573.72
 30
0.0
  0
VERTEX
  8
Data_PATH_09007_1_Final
 10
701766.215
 20
4558538.11
 30
0.0
  0
VERTEX
  8
Data_PATH_09007_1_Final
 10
701799.799
 20
4558501.68
 30
0.0
  0
VERTEX
  8
Data_PATH_09007_1_Final
 10
701862.923
 20
4558428.73
 30
0.0
  0
VERTEX
  8
Data_PATH_09007_1_Final
 10
701897.399
 20
4558391.63
 30
0.0
  0
VERTEX
  8
Data_PATH_09007_1_Final
 10
701973.067
 20
4558317.84
 30
0.0
  0
VERTEX
  8
Data_PATH_09007_1_Final
 10
702008.759
 20
4558281
 30
0.0
  0
VERTEX
  8
Data_PATH_09007_1_Final
 10
702041.108
 20
4558243.87
 30
0.0
  0
VERTEX
  8
Data_PATH_09007_1_Final
 10
702104.654
 20
4558166.35
 30
0.0
  0
VERTEX
  8
Data_PATH_09007_1_Final
 10
702140.609
 20
4558126.48
 30
0.0
  0
VERTEX
  8
Data_PATH_09007_1_Final
 10
702215.846
 20
4558047.34
 30
0.0
  0
VERTEX
  8
Data_PATH_09007_1_Final
 10
702250.108
 20
4558008.94
 30
0.0
  0
VERTEX
  8
Data_PATH_09007_1_Final
 10
702317.49
 20
4557927.86
 30
0.0
  0
VERTEX
  8
Data_PATH_09007_1_Final
 10
702353.792
 20
4557886.62
 30
0.0
  0
VERTEX
  8
Data_PATH_09007_1_Final
 10
702464.43
 20
4557770.84
 30
0.0
  0
VERTEX
  8
Data_PATH_09007_1_Final
 10
702568.14
 20
4557654.33
 30
0.0
  0
VERTEX
  8
Data_PATH_09007_1_Final
 10
702604.122
 20
4557615.38
 30
0.0
  0
VERTEX
  8
Data_PATH_09007_1_Final
 10
702640.071
 20
4557578.09
 30
0.0
  0
VERTEX
  8
Data_PATH_09007_1_Final
 10
702751.394
 20
4557467.33
 30
0.0
  0
VERTEX
  8
Data_PATH_09007_1_Final
 10
702788.924
 20
4557427.72
 30
0.0
  0
VERTEX
  8
Data_PATH_09007_1_Final
 10
702823.894
 20
4557387.57
 30
0.0
  0
VERTEX
  8
Data_PATH_09007_1_Final
 10
702840.015
 20
4557367.23
 30
0.0
  0
VERTEX
  8
Data_PATH_09007_1_Final
 10
702884.174
 20
4557304.86
 30
0.0
  0
VERTEX
  8
Data_PATH_09007_1_Final
 10
702914.656
 20
4557263.9
 30
0.0
  0
VERTEX
  8
Data_PATH_09007_1_Final
 10
702932.067
 20
4557244.89
 30
0.0
  0
VERTEX
  8
Data_PATH_09007_1_Final
 10
702960.762
 20
4557218.47
 30
0.0
  0
VERTEX
  8
Data_PATH_09007_1_Final
 10
702994.549
 20
4557195.72
 30
0.0
  0
VERTEX
  8
Data_PATH_09007_1_Final
 10
703019.043
 20
4557182.08
 30
0.0
  0
VERTEX
  8
Data_PATH_09007_1_Final
 10
703069.971
 20
4557157.15
 30
0.0
  0
VERTEX
  8
Data_PATH_09007_1_Final
 10
703094.032
 20
4557144.29
 30
0.0
  0
VERTEX
  8
Data_PATH_09007_1_Final
 10
703116.537
 20
4557130.5
 30
0.0
  0
VERTEX
  8
Data_PATH_09007_1_Final
 10
703137.143
 20
4557115.64
 30
0.0
  0
VERTEX
  8
Data_PATH_09007_1_Final
 10
703155.539
 20
4557098.98
 30
0.0
  0
VERTEX
  8
Data_PATH_09007_1_Final
 10
703180.751
 20
4557070.87
 30
0.0
  0
VERTEX
  8
Data_PATH_09007_1_Final
 10
703202.97
 20
4557039.22
 30
0.0
  0
VERTEX
  8
Data_PATH_09007_1_Final
 10
703257.867
 20
4556951.95
 30
0.0
  0
VERTEX
  8
Data_PATH_09007_1_Final
 10
703272.104
 20
4556932.32
 30
0.0
  0
VERTEX
  8
Data_PATH_09007_1_Final
 10
703287.163
 20
4556914.17
 30
0.0
  0
VERTEX
  8
Data_PATH_09007_1_Final
 10
703304.077
 20
4556897.62
 30
0.0
  0
VERTEX
  8
Data_PATH_09007_1_Final
 10
703322.511
 20
4556881.82
 30
0.0
  0
VERTEX
  8
Data_PATH_09007_1_Final
 10
703385.233
 20
4556832.87
 30
0.0
  0
VERTEX
  8
Data_PATH_09007_1_Final
 10
703406.816
 20
4556814.33
 30
0.0
  0
VERTEX
  8
Data_PATH_09007_1_Final
 10
703435.337
 20
4556787.61
 30
0.0
  0
SEQEND
  8
Data_PATH_09007_1_Final
  0
TEXT
  8
Data_PATH_09007_1_Final
 10
697904.297
 20
4562924.22
 30
0.0
  1
L10190 E
 11
697904.297
 21
4562924.22
 31
0.0
 40
59.9999929
 41
1
 50
-46.409
 51
0
 71
0
 62
7
  7
ARIAL
 72
2
 73
0
  0
TEXT
  8
Data_PATH_09007_1_Final
 10
703587.187
 20
4556954.7
 30
0.0
  1
L10190 E
 11
703587.187
 21
4556954.7
 31
0.0
 40
59.9999929
 41
1
 50
-46.409
 51
0
 71
0
 62
7
  7
ARIAL
  0
POLYLINE
  8
Data_PATH_09007_1_Final
 66
1
 40
3.59999957
 41
3.59999957
 62
7
 10
703575.82
 20
4557010.15
 30
0.0
  0
VERTEX
  8
Data_PATH_09007_1_Final
 10
703575.82
 20
4557010.15
 30
0.0
  0
VERTEX
  8
Data_PATH_09007_1_Final
 10
703491.63
 20
4557102.59
 30
0.0
  0
VERTEX
  8
Data_PATH_09007_1_Final
 10
703405.063
 20
4557192.65
 30
0.0
  0
VERTEX
  8
Data_PATH_09007_1_Final
 10
703365.03
 20
4557237.14
 30
0.0
  0
VERTEX
  8
Data_PATH_09007_1_Final
 10
703326.556
 20
4557282.64
 30
0.0
  0
VERTEX
  8
Data_PATH_09007_1_Final
 10
703287.039
 20
4557329.17
 30
0.0
  0
VERTEX
  8
Data_PATH_09007_1_Final
 10
703245.028
 20
4557376.17
 30
0.0
  0
VERTEX
  8
Data_PATH_09007_1_Final
 10
703158.147
 20
4557467.55
 30
0.0
  0
VERTEX
  8
Data_PATH_09007_1_Final
 10
703075.768
 20
4557557.22
 30
0.0
  0
VERTEX
  8
Data_PATH_09007_1_Final
 10
703032.504
 20
4557602.65
 30
0.0
  0
VERTEX
  8
Data_PATH_09007_1_Final
 10
702985.379
 20
4557647.28
 30
0.0
  0
VERTEX
  8
Data_PATH_09007_1_Final
 10
702887.858
 20
4557732.48
 30
0.0
  0
VERTEX
  8
Data_PATH_09007_1_Final
 10
702842.297
 20
4557775
 30
0.0
  0
VERTEX
  8
Data_PATH_09007_1_Final
 10
702799.942
 20
4557818.78
 30
0.0
  0
VERTEX
  8
Data_PATH_09007_1_Final
 10
702715.155
 20
4557909.87
 30
0.0
  0
VERTEX
  8
Data_PATH_09007_1_Final
 10
702630.772
 20
4557998.45
 30
0.0
  0
VERTEX
  8
Data_PATH_09007_1_Final
 10
702592.193
 20
4558040.69
 30
0.0
  0
VERTEX
  8
Data_PATH_09007_1_Final
 10
702555.568
 20
4558082.73
 30
0.0
  0
VERTEX
  8
Data_PATH_09007_1_Final
 10
702481.152
 20
4558170.53
 30
0.0
  0
VERTEX
  8
Data_PATH_09007_1_Final
 10
702442.452
 20
4558215.22
 30
0.0
  0
VERTEX
  8
Data_PATH_09007_1_Final
 10
702403.726
 20
4558258.44
 30
0.0
  0
VERTEX
  8
Data_PATH_09007_1_Final
 10
702327.619
 20
4558341.2
 30
0.0
  0
VERTEX
  8
Data_PATH_09007_1_Final
 10
702251.065
 20
4558426.75
 30
0.0
  0
VERTEX
  8
Data_PATH_09007_1_Final
 10
702212.545
 20
4558470.29
 30
0.0
  0
VERTEX
  8
Data_PATH_09007_1_Final
 10
702173.886
 20
4558512.47
 30
0.0
  0
VERTEX
  8
Data_PATH_09007_1_Final
 10
702134.714
 20
4558552.5
 30
0.0
  0
VERTEX
  8
Data_PATH_09007_1_Final
 10
702094.675
 20
4558590.79
 30
0.0
  0
VERTEX
  8
Data_PATH_09007_1_Final
 10
702054.522
 20
4558629.5
 30
0.0
  0
VERTEX
  8
Data_PATH_09007_1_Final
 10
702014.855
 20
4558670.18
 30
0.0
  0
VERTEX
  8
Data_PATH_09007_1_Final
 10
701936.272
 20
4558754.49
 30
0.0
  0
VERTEX
  8
Data_PATH_09007_1_Final
 10
701894.602
 20
4558796.33
 30
0.0
  0
VERTEX
  8
Data_PATH_09007_1_Final
 10
701810.012
 20
4558877.25
 30
0.0
  0
VERTEX
  8
Data_PATH_09007_1_Final
 10
701770.644
 20
4558917.87
 30
0.0
  0
VERTEX
  8
Data_PATH_09007_1_Final
 10
701694.184
 20
4559003.75
 30
0.0
  0
VERTEX
  8
Data_PATH_09007_1_Final
 10
701653.395
 20
4559047.64
 30
0.0
  0
VERTEX
  8
Data_PATH_09007_1_Final
 10
701609.706
 20
4559090.06
 30
0.0
  0
VERTEX
  8
Data_PATH_09007_1_Final
 10
701523.609
 20
4559167.84
 30
0.0
  0
VERTEX
  8
Data_PATH_09007_1_Final
 10
701482.316
 20
4559207
 30
0.0
  0
VERTEX
  8
Data_PATH_09007_1_Final
 10
701441.619
 20
4559248.37
 30
0.0
  0
VERTEX
  8
Data_PATH_09007_1_Final
 10
701360.316
 20
4559335.25
 30
0.0
  0
VERTEX
  8
Data_PATH_09007_1_Final
 10
701318.489
 20
4559377.32
 30
0.0
  0
VERTEX
  8
Data_PATH_09007_1_Final
 10
701230.469
 20
4559459.35
 30
0.0
  0
VERTEX
  8
Data_PATH_09007_1_Final
 10
701185.786
 20
4559502.17
 30
0.0
  0
VERTEX
  8
Data_PATH_09007_1_Final
 10
701142.714
 20
4559545.49
 30
0.0
  0
VERTEX
  8
Data_PATH_09007_1_Final
 10
701100.918
 20
4559589.05
 30
0.0
  0
VERTEX
  8
Data_PATH_09007_1_Final
 10
701059.423
 20
4559633.85
 30
0.0
  0
VERTEX
  8
Data_PATH_09007_1_Final
 10
701018.672
 20
4559679.45
 30
0.0
  0
VERTEX
  8
Data_PATH_09007_1_Final
 10
700978.959
 20
4559726.14
 30
0.0
  0
VERTEX
  8
Data_PATH_09007_1_Final
 10
700940.427
 20
4559774.35
 30
0.0
  0
VERTEX
  8
Data_PATH_09007_1_Final
 10
700867.354
 20
4559869.45
 30
0.0
  0
VERTEX
  8
Data_PATH_09007_1_Final
 10
700832.039
 20
4559912.85
 30
0.0
  0
VERTEX
  8
Data_PATH_09007_1_Final
 10
700795.154
 20
4559954.47
 30
0.0
  0
VERTEX
  8
Data_PATH_09007_1_Final
 10
700715.364
 20
4560037.44
 30
0.0
  0
VERTEX
  8
Data_PATH_09007_1_Final
 10
700632.736
 20
4560118.24
 30
0.0
  0
VERTEX
  8
Data_PATH_09007_1_Final
 10
700507.43
 20
4560232.49
 30
0.0
  0
VERTEX
  8
Data_PATH_09007_1_Final
 10
700465.703
 20
4560273.03
 30
0.0
  0
VERTEX
  8
Data_PATH_09007_1_Final
 10
700340.943
 20
4560401.09
 30
0.0
  0
VERTEX
  8
Data_PATH_09007_1_Final
 10
700299.032
 20
4560441.95
 30
0.0
  0
VERTEX
  8
Data_PATH_09007_1_Final
 10
700212.865
 20
4560519.3
 30
0.0
  0
VERTEX
  8
Data_PATH_09007_1_Final
 10
700169.553
 20
4560559.52
 30
0.0
  0
VERTEX
  8
Data_PATH_09007_1_Final
 10
700128.11
 20
4560602.28
 30
0.0
  0
VERTEX
  8
Data_PATH_09007_1_Final
 10
700049.439
 20
4560689.84
 30
0.0
  0
VERTEX
  8
Data_PATH_09007_1_Final
 10
700009.47
 20
4560731.47
 30
0.0
  0
VERTEX
  8
Data_PATH_09007_1_Final
 10
699927.63
 20
4560811.48
 30
0.0
  0
VERTEX
  8
Data_PATH_09007_1_Final
 10
699887.73
 20
4560854.02
 30
0.0
  0
VERTEX
  8
Data_PATH_09007_1_Final
 10
699849.759
 20
4560900.31
 30
0.0
  0
VERTEX
  8
Data_PATH_09007_1_Final
 10
699795.818
 20
4560969.31
 30
0.0
  0
VERTEX
  8
Data_PATH_09007_1_Final
 10
699777.239
 20
4560991.24
 30
0.0
  0
VERTEX
  8
Data_PATH_09007_1_Final
 10
699737.746
 20
4561033.59
 30
0.0
  0
VERTEX
  8
Data_PATH_09007_1_Final
 10
699652.789
 20
4561116.64
 30
0.0
  0
VERTEX
  8
Data_PATH_09007_1_Final
 10
699612.288
 20
4561159.65
 30
0.0
  0
VERTEX
  8
Data_PATH_09007_1_Final
 10
699536.543
 20
4561248.1
 30
0.0
  0
VERTEX
  8
Data_PATH_09007_1_Final
 10
699497.179
 20
4561291.92
 30
0.0
  0
VERTEX
  8
Data_PATH_09007_1_Final
 10
699413.05
 20
4561376.23
 30
0.0
  0
VERTEX
  8
Data_PATH_09007_1_Final
 10
699372.631
 20
4561417.97
 30
0.0
  0
VERTEX
  8
Data_PATH_09007_1_Final
 10
699296.954
 20
4561502.33
 30
0.0
  0
VERTEX
  8
Data_PATH_09007_1_Final
 10
699256.786
 20
4561545.06
 30
0.0
  0
VERTEX
  8
Data_PATH_09007_1_Final
 10
699214.165
 20
4561587.11
 30
0.0
  0
VERTEX
  8
Data_PATH_09007_1_Final
 10
699130.142
 20
4561667.45
 30
0.0
  0
VERTEX
  8
Data_PATH_09007_1_Final
 10
699012.284
 20
4561788.63
 30
0.0
  0
VERTEX
  8
Data_PATH_09007_1_Final
 10
698971.756
 20
4561828.33
 30
0.0
  0
VERTEX
  8
Data_PATH_09007_1_Final
 10
698887.047
 20
4561905.87
 30
0.0
  0
VERTEX
  8
Data_PATH_09007_1_Final
 10
698845.461
 20
4561946.4
 30
0.0
  0
VERTEX
  8
Data_PATH_09007_1_Final
 10
698805.982
 20
4561989.42
 30
0.0
  0
VERTEX
  8
Data_PATH_09007_1_Final
 10
698730.209
 20
4562079.2
 30
0.0
  0
VERTEX
  8
Data_PATH_09007_1_Final
 10
698691.264
 20
4562121.85
 30
0.0
  0
VERTEX
  8
Data_PATH_09007_1_Final
 10
698572.362
 20
4562237.57
 30
0.0
  0
VERTEX
  8
Data_PATH_09007_1_Final
 10
698533.184
 20
4562279.79
 30
0.0
  0
VERTEX
  8
Data_PATH_09007_1_Final
 10
698456.115
 20
4562370.33
 30
0.0
  0
VERTEX
  8
Data_PATH_09007_1_Final
 10
698417.187
 20
4562412.99
 30
0.0
  0
VERTEX
  8
Data_PATH_09007_1_Final
 10
698336.717
 20
4562491.23
 30
0.0
  0
VERTEX
  8
Data_PATH_09007_1_Final
 10
698296.304
 20
4562531.62
 30
0.0
  0
VERTEX
  8
Data_PATH_09007_1_Final
 10
698257.368
 20
4562574.8
 30
0.0
  0
VERTEX
  8
Data_PATH_09007_1_Final
 10
698183.636
 20
4562661.78
 30
0.0
  0
VERTEX
  8
Data_PATH_09007_1_Final
 10
698145.269
 20
4562704.07
 30
0.0
  0
VERTEX
  8
Data_PATH_09007_1_Final
 10
698062.914
 20
4562789.14
 30
0.0
  0
VERTEX
  8
Data_PATH_09007_1_Final
 10
698023.098
 20
4562833.56
 30
0.0
  0
VERTEX
  8
Data_PATH_09007_1_Final
 10
697959.122
 20
4562910.14
 30
0.0
  0
SEQEND
  8
Data_PATH_09007_1_Final
  0
TEXT
  8
Data_PATH_09007_1_Final
 10
698360.088
 20
4562906.46
 30
0.0
  1
L10200 E
 11
698360.088
 21
4562906.46
 31
0.0
 40
59.9999929
 41
1
 50
-46.591
 51
0
 71
0
 62
7
  7
ARIAL
 72
2
 73
0
  0
TEXT
  8
Data_PATH_09007_1_Final
 10
703797.321
 20
4557158.59
 30
0.0
  1
L10200 E
 11
703797.321
 21
4557158.59
 31
0.0
 40
59.9999929
 41
1
 50
-46.591
 51
0
 71
0
 62
7
  7
ARIAL
  0
POLYLINE
  8
Data_PATH_09007_1_Final
 66
1
 40
3.59999957
 41
3.59999957
 62
7
 10
698414.868
 20
4562892.2
 30
0.0
  0
VERTEX
  8
Data_PATH_09007_1_Final
 10
698414.868
 20
4562892.2
 30
0.0
  0
VERTEX
  8
Data_PATH_09007_1_Final
 10
698427.408
 20
4562847.68
 30
0.0
  0
VERTEX
  8
Data_PATH_09007_1_Final
 10
698434.452
 20
4562825.92
 30
0.0
  0
VERTEX
  8
Data_PATH_09007_1_Final
 10
698442.472
 20
4562804.43
 30
0.0
  0
VERTEX
  8
Data_PATH_09007_1_Final
 10
698451.696
 20
4562783.2
 30
0.0
  0
VERTEX
  8
Data_PATH_09007_1_Final
 10
698462.943
 20
4562762.2
 30
0.0
  0
VERTEX
  8
Data_PATH_09007_1_Final
 10
698482.589
 20
4562731.5
 30
0.0
  0
VERTEX
  8
Data_PATH_09007_1_Final
 10
698506.169
 20
4562702.84
 30
0.0
  0
VERTEX
  8
Data_PATH_09007_1_Final
 10
698523.214
 20
4562684.96
 30
0.0
  0
VERTEX
  8
Data_PATH_09007_1_Final
 10
698541.246
 20
4562668.77
 30
0.0
  0
VERTEX
  8
Data_PATH_09007_1_Final
 10
698578.815
 20
4562639
 30
0.0
  0
VERTEX
  8
Data_PATH_09007_1_Final
 10
698635.273
 20
4562596.3
 30
0.0
  0
VERTEX
  8
Data_PATH_09007_1_Final
 10
698653.308
 20
4562580.79
 30
0.0
  0
VERTEX
  8
Data_PATH_09007_1_Final
 10
698687.846
 20
4562547.43
 30
0.0
  0
VERTEX
  8
Data_PATH_09007_1_Final
 10
698720.408
 20
4562511.28
 30
0.0
  0
VERTEX
  8
Data_PATH_09007_1_Final
 10
698782.239
 20
4562435.16
 30
0.0
  0
VERTEX
  8
Data_PATH_09007_1_Final
 10
698813.504
 20
4562398.24
 30
0.0
  0
VERTEX
  8
Data_PATH_09007_1_Final
 10
698881.358
 20
4562325.25
 30
0.0
  0
VERTEX
  8
Data_PATH_09007_1_Final
 10
698948.808
 20
4562249.83
 30
0.0
  0
VERTEX
  8
Data_PATH_09007_1_Final
 10
698982.938
 20
4562212.8
 30
0.0
  0
VERTEX
  8
Data_PATH_09007_1_Final
 10
699018.927
 20
4562177.55
 30
0.0
  0
VERTEX
  8
Data_PATH_09007_1_Final
 10
699037.86
 20
4562160.69
 30
0.0
  0
VERTEX
  8
Data_PATH_09007_1_Final
 10
699057.891
 20
4562144.27
 30
0.0
  0
VERTEX
  8
Data_PATH_09007_1_Final
 10
699141.855
 20
4562078.99
 30
0.0
  0
VERTEX
  8
Data_PATH_09007_1_Final
 10
699183.22
 20
4562044.6
 30
0.0
  0
VERTEX
  8
Data_PATH_09007_1_Final
 10
699221.965
 20
4562009.22
 30
0.0
  0
VERTEX
  8
Data_PATH_09007_1_Final
 10
699292.244
 20
4561939.39
 30
0.0
  0
VERTEX
  8
Data_PATH_09007_1_Final
 10
699363.295
 20
4561867.15
 30
0.0
  0
VERTEX
  8
Data_PATH_09007_1_Final
 10
699500.473
 20
4561722.06
 30
0.0
  0
VERTEX
  8
Data_PATH_09007_1_Final
 10
699708.12
 20
4561486.71
 30
0.0
  0
VERTEX
  8
Data_PATH_09007_1_Final
 10
699743.151
 20
4561449.13
 30
0.0
  0
VERTEX
  8
Data_PATH_09007_1_Final
 10
699779.919
 20
4561412.1
 30
0.0
  0
VERTEX
  8
Data_PATH_09007_1_Final
 10
699903.176
 20
4561293.69
 30
0.0
  0
VERTEX
  8
Data_PATH_09007_1_Final
 10
699945.258
 20
4561254.99
 30
0.0
  0
VERTEX
  8
Data_PATH_09007_1_Final
 10
699966.66
 20
4561236.79
 30
0.0
  0
VERTEX
  8
Data_PATH_09007_1_Final
 10
699988.587
 20
4561219.64
 30
0.0
  0
VERTEX
  8
Data_PATH_09007_1_Final
 10
700081.599
 20
4561153.43
 30
0.0
  0
VERTEX
  8
Data_PATH_09007_1_Final
 10
700105.529
 20
4561135.61
 30
0.0
  0
VERTEX
  8
Data_PATH_09007_1_Final
 10
700140.59
 20
4561107.29
 30
0.0
  0
VERTEX
  8
Data_PATH_09007_1_Final
 10
700173.014
 20
4561075.85
 30
0.0
  0
VERTEX
  8
Data_PATH_09007_1_Final
 10
700193.034
 20
4561053.55
 30
0.0
  0
VERTEX
  8
Data_PATH_09007_1_Final
 10
700210.888
 20
4561030.4
 30
0.0
  0
VERTEX
  8
Data_PATH_09007_1_Final
 10
700227.164
 20
4561006.8
 30
0.0
  0
VERTEX
  8
Data_PATH_09007_1_Final
 10
700242.133
 20
4560982.67
 30
0.0
  0
VERTEX
  8
Data_PATH_09007_1_Final
 10
700283.726
 20
4560908.6
 30
0.0
  0
VERTEX
  8
Data_PATH_09007_1_Final
 10
700298.512
 20
4560884.57
 30
0.0
  0
VERTEX
  8
Data_PATH_09007_1_Final
 10
700314.312
 20
4560861.13
 30
0.0
  0
VERTEX
  8
Data_PATH_09007_1_Final
 10
700331.192
 20
4560838.3
 30
0.0
  0
VERTEX
  8
Data_PATH_09007_1_Final
 10
700349.113
 20
4560816.05
 30
0.0
  0
VERTEX
  8
Data_PATH_09007_1_Final
 10
700426.207
 20
4560730.05
 30
0.0
  0
VERTEX
  8
Data_PATH_09007_1_Final
 10
700500.302
 20
4560642.76
 30
0.0
  0
VERTEX
  8
Data_PATH_09007_1_Final
 10
700538.159
 20
4560599.24
 30
0.0
  0
VERTEX
  8
Data_PATH_09007_1_Final
 10
700578.932
 20
4560556.97
 30
0.0
  0
VERTEX
  8
Data_PATH_09007_1_Final
 10
700703.213
 20
4560435.4
 30
0.0
  0
VERTEX
  8
Data_PATH_09007_1_Final
 10
700825.058
 20
4560308.02
 30
0.0
  0
VERTEX
  8
Data_PATH_09007_1_Final
 10
700988.932
 20
4560146.09
 30
0.0
  0
VERTEX
  8
Data_PATH_09007_1_Final
 10
701032.184
 20
4560107.63
 30
0.0
  0
VERTEX
  8
Data_PATH_09007_1_Final
 10
701054.714
 20
4560089.47
 30
0.0
  0
VERTEX
  8
Data_PATH_09007_1_Final
 10
701078.054
 20
4560072.32
 30
0.0
  0
VERTEX
  8
Data_PATH_09007_1_Final
 10
701125.552
 20
4560040.42
 30
0.0
  0
VERTEX
  8
Data_PATH_09007_1_Final
 10
701266.685
 20
4559953.98
 30
0.0
  0
VERTEX
  8
Data_PATH_09007_1_Final
 10
701289.362
 20
4559939.03
 30
0.0
  0
VERTEX
  8
Data_PATH_09007_1_Final
 10
701311.574
 20
4559923.1
 30
0.0
  0
VERTEX
  8
Data_PATH_09007_1_Final
 10
701333.202
 20
4559906.32
 30
0.0
  0
VERTEX
  8
Data_PATH_09007_1_Final
 10
701353.979
 20
4559888.61
 30
0.0
  0
VERTEX
  8
Data_PATH_09007_1_Final
 10
701373.656
 20
4559869.98
 30
0.0
  0
VERTEX
  8
Data_PATH_09007_1_Final
 10
701392.001
 20
4559850.56
 30
0.0
  0
VERTEX
  8
Data_PATH_09007_1_Final
 10
701408.526
 20
4559830.24
 30
0.0
  0
VERTEX
  8
Data_PATH_09007_1_Final
 10
701423.974
 20
4559809.5
 30
0.0
  0
VERTEX
  8
Data_PATH_09007_1_Final
 10
701482.916
 20
4559725.97
 30
0.0
  0
VERTEX
  8
Data_PATH_09007_1_Final
 10
701515.638
 20
4559686.08
 30
0.0
  0
VERTEX
  8
Data_PATH_09007_1_Final
 10
701586.797
 20
4559608.66
 30
0.0
  0
VERTEX
  8
Data_PATH_09007_1_Final
 10
701620.131
 20
4559569.11
 30
0.0
  0
VERTEX
  8
Data_PATH_09007_1_Final
 10
701679.665
 20
4559489.28
 30
0.0
  0
VERTEX
  8
Data_PATH_09007_1_Final
 10
701710.63
 20
4559449.53
 30
0.0
  0
VERTEX
  8
Data_PATH_09007_1_Final
 10
701744.437
 20
4559411.91
 30
0.0
  0
VERTEX
  8
Data_PATH_09007_1_Final
 10
701817.211
 20
4559339.6
 30
0.0
  0
VERTEX
  8
Data_PATH_09007_1_Final
 10
701852.091
 20
4559301.48
 30
0.0
  0
VERTEX
  8
Data_PATH_09007_1_Final
 10
701884.177
 20
4559260.92
 30
0.0
  0
VERTEX
  8
Data_PATH_09007_1_Final
 10
701914.31
 20
4559219.15
 30
0.0
  0
VERTEX
  8
Data_PATH_09007_1_Final
 10
701945.364
 20
4559178.72
 30
0.0
  0
VERTEX
  8
Data_PATH_09007_1_Final
 10
701978.552
 20
4559140.75
 30
0.0
  0
VERTEX
  8
Data_PATH_09007_1_Final
 10
702050.464
 20
4559065.33
 30
0.0
  0
VERTEX
  8
Data_PATH_09007_1_Final
 10
702151.013
 20
4558949.36
 30
0.0
  0
VERTEX
  8
Data_PATH_09007_1_Final
 10
702187.23
 20
4558911.69
 30
0.0
  0
VERTEX
  8
Data_PATH_09007_1_Final
 10
702224.673
 20
4558874.26
 30
0.0
  0
VERTEX
  8
Data_PATH_09007_1_Final
 10
702260.616
 20
4558835.84
 30
0.0
  0
VERTEX
  8
Data_PATH_09007_1_Final
 10
702277.472
 20
4558815.84
 30
0.0
  0
VERTEX
  8
Data_PATH_09007_1_Final
 10
702293.47
 20
4558795.12
 30
0.0
  0
VERTEX
  8
Data_PATH_09007_1_Final
 10
702351.898
 20
4558708.59
 30
0.0
  0
VERTEX
  8
Data_PATH_09007_1_Final
 10
702382.336
 20
4558667.26
 30
0.0
  0
VERTEX
  8
Data_PATH_09007_1_Final
 10
702455.021
 20
4558585.62
 30
0.0
  0
VERTEX
  8
Data_PATH_09007_1_Final
 10
702489.332
 20
4558545.25
 30
0.0
  0
VERTEX
  8
Data_PATH_09007_1_Final
 10
702550.181
 20
4558464.83
 30
0.0
  0
VERTEX
  8
Data_PATH_09007_1_Final
 10
702583.379
 20
4558424.26
 30
0.0
  0
VERTEX
  8
Data_PATH_09007_1_Final
 10
702620.067
 20
4558384.39
 30
0.0
  0
VERTEX
  8
Data_PATH_09007_1_Final
 10
702731.849
 20
4558272.23
 30
0.0
  0
VERTEX
  8
Data_PATH_09007_1_Final
 10
702767.854
 20
4558234.69
 30
0.0
  0
VERTEX
  8
Data_PATH_09007_1_Final
 10
702805.238
 20
4558197.43
 30
0.0
  0
VERTEX
  8
Data_PATH_09007_1_Final
 10
702844.241
 20
4558162.13
 30
0.0
  0
VERTEX
  8
Data_PATH_09007_1_Final
 10
702924.138
 20
4558095.97
 30
0.0
  0
VERTEX
  8
Data_PATH_09007_1_Final
 10
702963.475
 20
4558060.1
 30
0.0
  0
VERTEX
  8
Data_PATH_09007_1_Final
 10
703039.097
 20
4557984.84
 30
0.0
  0
VERTEX
  8
Data_PATH_09007_1_Final
 10
703076.977
 20
4557948.8
 30
0.0
  0
VERTEX
  8
Data_PATH_09007_1_Final
 10
703157.118
 20
4557877.48
 30
0.0
  0
VERTEX
  8
Data_PATH_09007_1_Final
 10
703196.983
 20
4557838.56
 30
0.0
  0
VERTEX
  8
Data_PATH_09007_1_Final
 10
703233.271
 20
4557798.84
 30
0.0
  0
VERTEX
  8
Data_PATH_09007_1_Final
 10
703300.412
 20
4557720.55
 30
0.0
  0
VERTEX
  8
Data_PATH_09007_1_Final
 10
703337.025
 20
4557681.09
 30
0.0
  0
VERTEX
  8
Data_PATH_09007_1_Final
 10
703414.679
 20
4557604.5
 30
0.0
  0
VERTEX
  8
Data_PATH_09007_1_Final
 10
703452.115
 20
4557566.33
 30
0.0
  0
VERTEX
  8
Data_PATH_09007_1_Final
 10
703487.504
 20
4557527.39
 30
0.0
  0
VERTEX
  8
Data_PATH_09007_1_Final
 10
703557.735
 20
4557447.51
 30
0.0
  0
VERTEX
  8
Data_PATH_09007_1_Final
 10
703595.113
 20
4557408.96
 30
0.0
  0
VERTEX
  8
Data_PATH_09007_1_Final
 10
703671.335
 20
4557336.72
 30
0.0
  0
VERTEX
  8
Data_PATH_09007_1_Final
 10
703709.24
 20
4557298.83
 30
0.0
  0
VERTEX
  8
Data_PATH_09007_1_Final
 10
703746.794
 20
4557258.36
 30
0.0
  0
VERTEX
  8
Data_PATH_09007_1_Final
 10
703786.13
 20
4557214.08
 30
0.0
  0
SEQEND
  8
Data_PATH_09007_1_Final
  0
TEXT
  8
Data_PATH_09007_1_Final
 10
698652.138
 20
4562936.15
 30
0.0
  1
L10210 E
 11
698652.138
 21
4562936.15
 31
0.0
 40
59.9999929
 41
1
 50
-46.153
 51
0
 71
0
 62
7
  7
ARIAL
 72
2
 73
0
  0
TEXT
  8
Data_PATH_09007_1_Final
 10
703975.663
 20
4557394.03
 30
0.0
  1
L10210 E
 11
703975.663
 21
4557394.03
 31
0.0
 40
59.9999929
 41
1
 50
-46.153
 51
0
 71
0
 62
7
  7
ARIAL
  0
POLYLINE
  8
Data_PATH_09007_1_Final
 66
1
 40
3.59999957
 41
3.59999957
 62
7
 10
703964.047
 20
4557449.43
 30
0.0
  0
VERTEX
  8
Data_PATH_09007_1_Final
 10
703964.047
 20
4557449.43
 30
0.0
  0
VERTEX
  8
Data_PATH_09007_1_Final
 10
703925.251
 20
4557498.32
 30
0.0
  0
VERTEX
  8
Data_PATH_09007_1_Final
 10
703885.127
 20
4557544.75
 30
0.0
  0
VERTEX
  8
Data_PATH_09007_1_Final
 10
703763.323
 20
4557674.78
 30
0.0
  0
VERTEX
  8
Data_PATH_09007_1_Final
 10
703724.634
 20
4557718.92
 30
0.0
  0
VERTEX
  8
Data_PATH_09007_1_Final
 10
703705.862
 20
4557742.25
 30
0.0
  0
VERTEX
  8
Data_PATH_09007_1_Final
 10
703687.617
 20
4557766.56
 30
0.0
  0
VERTEX
  8
Data_PATH_09007_1_Final
 10
703669.974
 20
4557791.9
 30
0.0
  0
VERTEX
  8
Data_PATH_09007_1_Final
 10
703620.24
 20
4557871.72
 30
0.0
  0
VERTEX
  8
Data_PATH_09007_1_Final
 10
703586.511
 20
4557924.04
 30
0.0
  0
VERTEX
  8
Data_PATH_09007_1_Final
 10
703568.243
 20
4557948.58
 30
0.0
  0
VERTEX
  8
Data_PATH_09007_1_Final
 10
703538.754
 20
4557983.36
 30
0.0
  0
VERTEX
  8
Data_PATH_09007_1_Final
 10
703505.891
 20
4558014.71
 30
0.0
  0
VERTEX
  8
Data_PATH_09007_1_Final
 10
703482.877
 20
4558034.34
 30
0.0
  0
VERTEX
  8
Data_PATH_09007_1_Final
 10
703389.082
 20
4558107.77
 30
0.0
  0
VERTEX
  8
Data_PATH_09007_1_Final
 10
703343.598
 20
4558146.54
 30
0.0
  0
VERTEX
  8
Data_PATH_09007_1_Final
 10
703299.679
 20
4558187.38
 30
0.0
  0
VERTEX
  8
Data_PATH_09007_1_Final
 10
703214.932
 20
4558270.41
 30
0.0
  0
VERTEX
  8
Data_PATH_09007_1_Final
 10
703172.877
 20
4558310.37
 30
0.0
  0
VERTEX
  8
Data_PATH_09007_1_Final
 10
703084.269
 20
4558390.12
 30
0.0
  0
VERTEX
  8
Data_PATH_09007_1_Final
 10
703040
 20
4558431.27
 30
0.0
  0
VERTEX
  8
Data_PATH_09007_1_Final
 10
702957.154
 20
4558512.85
 30
0.0
  0
VERTEX
  8
Data_PATH_09007_1_Final
 10
702914.695
 20
4558553.05
 30
0.0
  0
VERTEX
  8
Data_PATH_09007_1_Final
 10
702825.036
 20
4558634.19
 30
0.0
  0
VERTEX
  8
Data_PATH_09007_1_Final
 10
702781.047
 20
4558676.15
 30
0.0
  0
VERTEX
  8
Data_PATH_09007_1_Final
 10
702740.024
 20
4558718.6
 30
0.0
  0
VERTEX
  8
Data_PATH_09007_1_Final
 10
702581.697
 20
4558892.83
 30
0.0
  0
VERTEX
  8
Data_PATH_09007_1_Final
 10
702542.231
 20
4558938.37
 30
0.0
  0
VERTEX
  8
Data_PATH_09007_1_Final
 10
702470.86
 20
4559028.09
 30
0.0
  0
VERTEX
  8
Data_PATH_09007_1_Final
 10
702434.578
 20
4559072.78
 30
0.0
  0
VERTEX
  8
Data_PATH_09007_1_Final
 10
702394.041
 20
4559117.08
 30
0.0
  0
VERTEX
  8
Data_PATH_09007_1_Final
 10
702350.543
 20
4559159.65
 30
0.0
  0
VERTEX
  8
Data_PATH_09007_1_Final
 10
702305.53
 20
4559199.85
 30
0.0
  0
VERTEX
  8
Data_PATH_09007_1_Final
 10
702260.765
 20
4559238.97
 30
0.0
  0
VERTEX
  8
Data_PATH_09007_1_Final
 10
702217.081
 20
4559278.63
 30
0.0
  0
VERTEX
  8
Data_PATH_09007_1_Final
 10
702083.721
 20
4559407.07
 30
0.0
  0
VERTEX
  8
Data_PATH_09007_1_Final
 10
702036.224
 20
4559450.54
 30
0.0
  0
VERTEX
  8
Data_PATH_09007_1_Final
 10
701942.348
 20
4559534.32
 30
0.0
  0
VERTEX
  8
Data_PATH_09007_1_Final
 10
701896.759
 20
4559576.33
 30
0.0
  0
VERTEX
  8
Data_PATH_09007_1_Final
 10
701851.549
 20
4559621
 30
0.0
  0
VERTEX
  8
Data_PATH_09007_1_Final
 10
701806.902
 20
4559668.5
 30
0.0
  0
VERTEX
  8
Data_PATH_09007_1_Final
 10
701721.495
 20
4559763.84
 30
0.0
  0
VERTEX
  8
Data_PATH_09007_1_Final
 10
701679.724
 20
4559807.46
 30
0.0
  0
VERTEX
  8
Data_PATH_09007_1_Final
 10
701544.147
 20
4559935.45
 30
0.0
  0
VERTEX
  8
Data_PATH_09007_1_Final
 10
701499.584
 20
4559981.18
 30
0.0
  0
VERTEX
  8
Data_PATH_09007_1_Final
 10
701458.22
 20
4560028.27
 30
0.0
  0
VERTEX
  8
Data_PATH_09007_1_Final
 10
701379.724
 20
4560122.5
 30
0.0
  0
VERTEX
  8
Data_PATH_09007_1_Final
 10
701338.301
 20
4560167.57
 30
0.0
  0
VERTEX
  8
Data_PATH_09007_1_Final
 10
701252.535
 20
4560254.04
 30
0.0
  0
VERTEX
  8
Data_PATH_09007_1_Final
 10
701210.966
 20
4560297.89
 30
0.0
  0
VERTEX
  8
Data_PATH_09007_1_Final
 10
701131.037
 20
4560385.88
 30
0.0
  0
VERTEX
  8
Data_PATH_09007_1_Final
 10
701088.993
 20
4560429.56
 30
0.0
  0
VERTEX
  8
Data_PATH_09007_1_Final
 10
700956.598
 20
4560560.69
 30
0.0
  0
VERTEX
  8
Data_PATH_09007_1_Final
 10
700915.086
 20
4560603.94
 30
0.0
  0
VERTEX
  8
Data_PATH_09007_1_Final
 10
700831.341
 20
4560693.7
 30
0.0
  0
VERTEX
  8
Data_PATH_09007_1_Final
 10
700745.165
 20
4560786.79
 30
0.0
  0
VERTEX
  8
Data_PATH_09007_1_Final
 10
700661.519
 20
4560880.13
 30
0.0
  0
VERTEX
  8
Data_PATH_09007_1_Final
 10
700578.878
 20
4560973.71
 30
0.0
  0
VERTEX
  8
Data_PATH_09007_1_Final
 10
700492.554
 20
4561068.91
 30
0.0
  0
VERTEX
  8
Data_PATH_09007_1_Final
 10
700405.506
 20
4561163.24
 30
0.0
  0
VERTEX
  8
Data_PATH_09007_1_Final
 10
700361.161
 20
4561209.03
 30
0.0
  0
VERTEX
  8
Data_PATH_09007_1_Final
 10
700314.661
 20
4561254.33
 30
0.0
  0
VERTEX
  8
Data_PATH_09007_1_Final
 10
700265.949
 20
4561299.41
 30
0.0
  0
VERTEX
  8
Data_PATH_09007_1_Final
 10
700165.789
 20
4561390.18
 30
0.0
  0
VERTEX
  8
Data_PATH_09007_1_Final
 10
700141.749
 20
4561413.27
 30
0.0
  0
VERTEX
  8
Data_PATH_09007_1_Final
 10
700118.93
 20
4561436.56
 30
0.0
  0
VERTEX
  8
Data_PATH_09007_1_Final
 10
700075.269
 20
4561483.91
 30
0.0
  0
VERTEX
  8
Data_PATH_09007_1_Final
 10
699988.191
 20
4561581.9
 30
0.0
  0
VERTEX
  8
Data_PATH_09007_1_Final
 10
699897.7
 20
4561678.36
 30
0.0
  0
VERTEX
  8
Data_PATH_09007_1_Final
 10
699855.096
 20
4561724.87
 30
0.0
  0
VERTEX
  8
Data_PATH_09007_1_Final
 10
699814.314
 20
4561772.11
 30
0.0
  0
VERTEX
  8
Data_PATH_09007_1_Final
 10
699774.776
 20
4561821.82
 30
0.0
  0
VERTEX
  8
Data_PATH_09007_1_Final
 10
699735.932
 20
4561873.61
 30
0.0
  0
VERTEX
  8
Data_PATH_09007_1_Final
 10
699625.258
 20
4562025.65
 30
0.0
  0
VERTEX
  8
Data_PATH_09007_1_Final
 10
699587.757
 20
4562073.89
 30
0.0
  0
VERTEX
  8
Data_PATH_09007_1_Final
 10
699547.544
 20
4562122.69
 30
0.0
  0
VERTEX
  8
Data_PATH_09007_1_Final
 10
699504.827
 20
4562170.98
 30
0.0
  0
VERTEX
  8
Data_PATH_09007_1_Final
 10
699459.358
 20
4562217.19
 30
0.0
  0
VERTEX
  8
Data_PATH_09007_1_Final
 10
699435.63
 20
4562239.16
 30
0.0
  0
VERTEX
  8
Data_PATH_09007_1_Final
 10
699411.224
 20
4562260.24
 30
0.0
  0
VERTEX
  8
Data_PATH_09007_1_Final
 10
699360.552
 20
4562299.32
 30
0.0
  0
VERTEX
  8
Data_PATH_09007_1_Final
 10
699257.217
 20
4562372.59
 30
0.0
  0
VERTEX
  8
Data_PATH_09007_1_Final
 10
699206.065
 20
4562411.21
 30
0.0
  0
VERTEX
  8
Data_PATH_09007_1_Final
 10
699156.104
 20
4562451.44
 30
0.0
  0
VERTEX
  8
Data_PATH_09007_1_Final
 10
699058.33
 20
4562533.95
 30
0.0
  0
VERTEX
  8
Data_PATH_09007_1_Final
 10
699010.697
 20
4562576.24
 30
0.0
  0
VERTEX
  8
Data_PATH_09007_1_Final
 10
698963.527
 20
4562621.19
 30
0.0
  0
VERTEX
  8
Data_PATH_09007_1_Final
 10
698917.274
 20
4562668.44
 30
0.0
  0
VERTEX
  8
Data_PATH_09007_1_Final
 10
698828.611
 20
4562766.01
 30
0.0
  0
VERTEX
  8
Data_PATH_09007_1_Final
 10
698785.684
 20
4562816.5
 30
0.0
  0
VERTEX
  8
Data_PATH_09007_1_Final
 10
698744.503
 20
4562869.69
 30
0.0
  0
VERTEX
  8
Data_PATH_09007_1_Final
 10
698707.025
 20
4562922.32
 30
0.0
  0
SEQEND
  8
Data_PATH_09007_1_Final
  0
TEXT
  8
Data_PATH_09007_1_Final
 10
698606.369
 20
4562939.72
 30
0.0
  1
L10220 N
 11
698606.369
 21
4562939.72
 31
0.0
 40
59.9999929
 41
1
 50
-44.099
 51
0
 71
0
 62
7
  7
ARIAL
 72
2
 73
0
  0
TEXT
  8
Data_PATH_09007_1_Final
 10
704115.949
 20
4557600.7
 30
0.0
  1
L10220 N
 11
704115.949
 21
4557600.7
 31
0.0
 40
59.9999929
 41
1
 50
-44.099
 51
0
 71
0
 62
7
  7
ARIAL
  0
POLYLINE
  8
Data_PATH_09007_1_Final
 66
1
 40
3.59999957
 41
3.59999957
 62
7
 10
704102.355
 20
4557655.64
 30
0.0
  0
VERTEX
  8
Data_PATH_09007_1_Final
 10
704102.355
 20
4557655.64
 30
0.0
  0
VERTEX
  8
Data_PATH_09007_1_Final
 10
704086.992
 20
4557683.32
 30
0.0
  0
VERTEX
  8
Data_PATH_09007_1_Final
 10
704070.592
 20
4557710.3
 30
0.0
  0
VERTEX
  8
Data_PATH_09007_1_Final
 10
704053.149
 20
4557736.41
 30
0.0
  0
VERTEX
  8
Data_PATH_09007_1_Final
 10
704034.745
 20
4557761.55
 30
0.0
  0
VERTEX
  8
Data_PATH_09007_1_Final
 10
704015.55
 20
4557785.68
 30
0.0
  0
VERTEX
  8
Data_PATH_09007_1_Final
 10
703995.82
 20
4557808.75
 30
0.0
  0
VERTEX
  8
Data_PATH_09007_1_Final
 10
703956.638
 20
4557853.82
 30
0.0
  0
VERTEX
  8
Data_PATH_09007_1_Final
 10
703918.974
 20
4557898.99
 30
0.0
  0
VERTEX
  8
Data_PATH_09007_1_Final
 10
703844.374
 20
4557993.76
 30
0.0
  0
VERTEX
  8
Data_PATH_09007_1_Final
 10
703823.975
 20
4558017.89
 30
0.0
  0
VERTEX
  8
Data_PATH_09007_1_Final
 10
703802.224
 20
4558041.51
 30
0.0
  0
VERTEX
  8
Data_PATH_09007_1_Final
 10
703756.61
 20
4558086.46
 30
0.0
  0
VERTEX
  8
Data_PATH_09007_1_Final
 10
703667.022
 20
4558168.48
 30
0.0
  0
VERTEX
  8
Data_PATH_09007_1_Final
 10
703627.389
 20
4558209.44
 30
0.0
  0
VERTEX
  8
Data_PATH_09007_1_Final
 10
703550.772
 20
4558300.51
 30
0.0
  0
VERTEX
  8
Data_PATH_09007_1_Final
 10
703509.547
 20
4558346.36
 30
0.0
  0
VERTEX
  8
Data_PATH_09007_1_Final
 10
703466.562
 20
4558387.87
 30
0.0
  0
VERTEX
  8
Data_PATH_09007_1_Final
 10
703383.07
 20
4558463.54
 30
0.0
  0
VERTEX
  8
Data_PATH_09007_1_Final
 10
703342.49
 20
4558503.45
 30
0.0
  0
VERTEX
  8
Data_PATH_09007_1_Final
 10
703261.232
 20
4558588.93
 30
0.0
  0
VERTEX
  8
Data_PATH_09007_1_Final
 10
703220.75
 20
4558629.37
 30
0.0
  0
VERTEX
  8
Data_PATH_09007_1_Final
 10
703138.905
 20
4558704.6
 30
0.0
  0
VERTEX
  8
Data_PATH_09007_1_Final
 10
703098.782
 20
4558743.67
 30
0.0
  0
VERTEX
  8
Data_PATH_09007_1_Final
 10
703061.055
 20
4558784.97
 30
0.0
  0
VERTEX
  8
Data_PATH_09007_1_Final
 10
702989.518
 20
4558867.43
 30
0.0
  0
VERTEX
  8
Data_PATH_09007_1_Final
 10
702952.29
 20
4558906.97
 30
0.0
  0
VERTEX
  8
Data_PATH_09007_1_Final
 10
702913.519
 20
4558946.37
 30
0.0
  0
VERTEX
  8
Data_PATH_09007_1_Final
 10
702875.51
 20
4558986.91
 30
0.0
  0
VERTEX
  8
Data_PATH_09007_1_Final
 10
702839.861
 20
4559029.38
 30
0.0
  0
VERTEX
  8
Data_PATH_09007_1_Final
 10
702774.57
 20
4559118.19
 30
0.0
  0
VERTEX
  8
Data_PATH_09007_1_Final
 10
702757.944
 20
4559140.3
 30
0.0
  0
VERTEX
  8
Data_PATH_09007_1_Final
 10
702740.214
 20
4559162.26
 30
0.0
  0
VERTEX
  8
Data_PATH_09007_1_Final
 10
702721.069
 20
4559183.32
 30
0.0
  0
VERTEX
  8
Data_PATH_09007_1_Final
 10
702700.974
 20
4559203.36
 30
0.0
  0
VERTEX
  8
Data_PATH_09007_1_Final
 10
702680.143
 20
4559222.28
 30
0.0
  0
VERTEX
  8
Data_PATH_09007_1_Final
 10
702658.833
 20
4559240.14
 30
0.0
  0
VERTEX
  8
Data_PATH_09007_1_Final
 10
702616.389
 20
4559273.61
 30
0.0
  0
VERTEX
  8
Data_PATH_09007_1_Final
 10
702576.293
 20
4559307.18
 30
0.0
  0
VERTEX
  8
Data_PATH_09007_1_Final
 10
702538.076
 20
4559342.32
 30
0.0
  0
VERTEX
  8
Data_PATH_09007_1_Final
 10
702501.222
 20
4559379.84
 30
0.0
  0
VERTEX
  8
Data_PATH_09007_1_Final
 10
702465.382
 20
4559419.07
 30
0.0
  0
VERTEX
  8
Data_PATH_09007_1_Final
 10
702430.674
 20
4559459.28
 30
0.0
  0
VERTEX
  8
Data_PATH_09007_1_Final
 10
702363.455
 20
4559537.47
 30
0.0
  0
VERTEX
  8
Data_PATH_09007_1_Final
 10
702327.171
 20
4559574.96
 30
0.0
  0
VERTEX
  8
Data_PATH_09007_1_Final
 10
702250.345
 20
4559649.48
 30
0.0
  0
VERTEX
  8
Data_PATH_09007_1_Final
 10
702138.224
 20
4559765.55
 30
0.0
  0
VERTEX
  8
Data_PATH_09007_1_Final
 10
702098.762
 20
4559804.66
 30
0.0
  0
VERTEX
  8
Data_PATH_09007_1_Final
 10
702057.17
 20
4559843.9
 30
0.0
  0
VERTEX
  8
Data_PATH_09007_1_Final
 10
701973.144
 20
4559921.87
 30
0.0
  0
VERTEX
  8
Data_PATH_09007_1_Final
 10
701889.474
 20
4560001.36
 30
0.0
  0
VERTEX
  8
Data_PATH_09007_1_Final
 10
701846.732
 20
4560044.16
 30
0.0
  0
VERTEX
  8
Data_PATH_09007_1_Final
 10
701804.379
 20
4560089.38
 30
0.0
  0
VERTEX
  8
Data_PATH_09007_1_Final
 10
701607.568
 20
4560311.24
 30
0.0
  0
VERTEX
  8
Data_PATH_09007_1_Final
 10
701567.634
 20
4560354.24
 30
0.0
  0
VERTEX
  8
Data_PATH_09007_1_Final
 10
701525.296
 20
4560395.06
 30
0.0
  0
VERTEX
  8
Data_PATH_09007_1_Final
 10
701435.453
 20
4560473.46
 30
0.0
  0
VERTEX
  8
Data_PATH_09007_1_Final
 10
701413.852
 20
4560493.78
 30
0.0
  0
VERTEX
  8
Data_PATH_09007_1_Final
 10
701393.198
 20
4560514.71
 30
0.0
  0
VERTEX
  8
Data_PATH_09007_1_Final
 10
701373.603
 20
4560536.25
 30
0.0
  0
VERTEX
  8
Data_PATH_09007_1_Final
 10
701355.122
 20
4560558.31
 30
0.0
  0
VERTEX
  8
Data_PATH_09007_1_Final
 10
701288.633
 20
4560648.53
 30
0.0
  0
VERTEX
  8
Data_PATH_09007_1_Final
 10
701254.473
 20
4560692.3
 30
0.0
  0
VERTEX
  8
Data_PATH_09007_1_Final
 10
701178.495
 20
4560779.96
 30
0.0
  0
VERTEX
  8
Data_PATH_09007_1_Final
 10
701140.242
 20
4560826.98
 30
0.0
  0
VERTEX
  8
Data_PATH_09007_1_Final
 10
701086.115
 20
4560898.26
 30
0.0
  0
VERTEX
  8
Data_PATH_09007_1_Final
 10
701067.104
 20
4560921.37
 30
0.0
  0
VERTEX
  8
Data_PATH_09007_1_Final
 10
701036.866
 20
4560954.48
 30
0.0
  0
VERTEX
  8
Data_PATH_09007_1_Final
 10
701004.301
 20
4560984.42
 30
0.0
  0
VERTEX
  8
Data_PATH_09007_1_Final
 10
700981.679
 20
4561003.11
 30
0.0
  0
VERTEX
  8
Data_PATH_09007_1_Final
 10
700911.56
 20
4561055.25
 30
0.0
  0
VERTEX
  8
Data_PATH_09007_1_Final
 10
700888.965
 20
4561073.38
 30
0.0
  0
VERTEX
  8
Data_PATH_09007_1_Final
 10
700867.316
 20
4561092.66
 30
0.0
  0
VERTEX
  8
Data_PATH_09007_1_Final
 10
700847.228
 20
4561113.28
 30
0.0
  0
VERTEX
  8
Data_PATH_09007_1_Final
 10
700828.135
 20
4561134.93
 30
0.0
  0
VERTEX
  8
Data_PATH_09007_1_Final
 10
700755.147
 20
4561226.18
 30
0.0
  0
VERTEX
  8
Data_PATH_09007_1_Final
 10
700735.758
 20
4561248.07
 30
0.0
  0
VERTEX
  8
Data_PATH_09007_1_Final
 10
700715.666
 20
4561269.09
 30
0.0
  0
VERTEX
  8
Data_PATH_09007_1_Final
 10
700694.893
 20
4561289.25
 30
0.0
  0
VERTEX
  8
Data_PATH_09007_1_Final
 10
700673.492
 20
4561308.63
 30
0.0
  0
VERTEX
  8
Data_PATH_09007_1_Final
 10
700629.147
 20
4561345.53
 30
0.0
  0
VERTEX
  8
Data_PATH_09007_1_Final
 10
700540.873
 20
4561416.32
 30
0.0
  0
VERTEX
  8
Data_PATH_09007_1_Final
 10
700498.435
 20
4561452.36
 30
0.0
  0
VERTEX
  8
Data_PATH_09007_1_Final
 10
700456.954
 20
4561489.71
 30
0.0
  0
VERTEX
  8
Data_PATH_09007_1_Final
 10
700373.921
 20
4561567.89
 30
0.0
  0
VERTEX
  8
Data_PATH_09007_1_Final
 10
700288.555
 20
4561646.48
 30
0.0
  0
VERTEX
  8
Data_PATH_09007_1_Final
 10
700246.267
 20
4561686.97
 30
0.0
  0
VERTEX
  8
Data_PATH_09007_1_Final
 10
700205.5
 20
4561729.7
 30
0.0
  0
VERTEX
  8
Data_PATH_09007_1_Final
 10
700166.313
 20
4561773.8
 30
0.0
  0
VERTEX
  8
Data_PATH_09007_1_Final
 10
700049.796
 20
4561909.15
 30
0.0
  0
VERTEX
  8
Data_PATH_09007_1_Final
 10
699855.789
 20
4562127.54
 30
0.0
  0
VERTEX
  8
Data_PATH_09007_1_Final
 10
699816.685
 20
4562170.4
 30
0.0
  0
VERTEX
  8
Data_PATH_09007_1_Final
 10
699776.787
 20
4562210.67
 30
0.0
  0
VERTEX
  8
Data_PATH_09007_1_Final
 10
699756.382
 20
4562229.69
 30
0.0
  0
VERTEX
  8
Data_PATH_09007_1_Final
 10
699735.149
 20
4562247.65
 30
0.0
  0
VERTEX
  8
Data_PATH_09007_1_Final
 10
699701.528
 20
4562272.84
 30
0.0
  0
VERTEX
  8
Data_PATH_09007_1_Final
 10
699664.888
 20
4562293.68
 30
0.0
  0
VERTEX
  8
Data_PATH_09007_1_Final
 10
699639.404
 20
4562304.98
 30
0.0
  0
VERTEX
  8
Data_PATH_09007_1_Final
 10
699613.324
 20
4562312.91
 30
0.0
  0
VERTEX
  8
Data_PATH_09007_1_Final
 10
699573.975
 20
4562320.9
 30
0.0
  0
VERTEX
  8
Data_PATH_09007_1_Final
 10
699534.257
 20
4562323.68
 30
0.0
  0
VERTEX
  8
Data_PATH_09007_1_Final
 10
699480.682
 20
4562325.98
 30
0.0
  0
VERTEX
  8
Data_PATH_09007_1_Final
 10
699439.975
 20
4562331.65
 30
0.0
  0
VERTEX
  8
Data_PATH_09007_1_Final
 10
699398.742
 20
4562343.7
 30
0.0
  0
VERTEX
  8
Data_PATH_09007_1_Final
 10
699370.946
 20
4562354.45
 30
0.0
  0
VERTEX
  8
Data_PATH_09007_1_Final
 10
699342.35
 20
4562368.47
 30
0.0
  0
VERTEX
  8
Data_PATH_09007_1_Final
 10
699223.615
 20
4562432.25
 30
0.0
  0
VERTEX
  8
Data_PATH_09007_1_Final
 10
699193.881
 20
4562445.8
 30
0.0
  0
VERTEX
  8
Data_PATH_09007_1_Final
 10
699164.181
 20
4562458.13
 30
0.0
  0
VERTEX
  8
Data_PATH_09007_1_Final
 10
699104.387
 20
4562481.36
 30
0.0
  0
VERTEX
  8
Data_PATH_09007_1_Final
 10
699074.169
 20
4562493.89
 30
0.0
  0
VERTEX
  8
Data_PATH_09007_1_Final
 10
699044.088
 20
4562509.33
 30
0.0
  0
VERTEX
  8
Data_PATH_09007_1_Final
 10
699000.066
 20
4562537.12
 30
0.0
  0
VERTEX
  8
Data_PATH_09007_1_Final
 10
698959.034
 20
4562571.81
 30
0.0
  0
VERTEX
  8
Data_PATH_09007_1_Final
 10
698933.361
 20
4562597.28
 30
0.0
  0
VERTEX
  8
Data_PATH_09007_1_Final
 10
698909.657
 20
4562624.86
 30
0.0
  0
VERTEX
  8
Data_PATH_09007_1_Final
 10
698822.901
 20
4562736.1
 30
0.0
  0
VERTEX
  8
Data_PATH_09007_1_Final
 10
698780.627
 20
4562786.24
 30
0.0
  0
VERTEX
  8
Data_PATH_09007_1_Final
 10
698713.983
 20
4562861.32
 30
0.0
  0
VERTEX
  8
Data_PATH_09007_1_Final
 10
698691.56
 20
4562888.49
 30
0.0
  0
VERTEX
  8
Data_PATH_09007_1_Final
 10
698661.717
 20
4562927.86
 30
0.0
  0
SEQEND
  8
Data_PATH_09007_1_Final
  0
TEXT
  8
Data_PATH_09007_1_Final
 10
698646.98
 20
4562938.34
 30
0.0
  1
L10230 N
 11
698646.98
 21
4562938.34
 31
0.0
 40
59.9999929
 41
1
 50
-41.964
 51
0
 71
0
 62
7
  7
ARIAL
 72
2
 73
0
  0
TEXT
  8
Data_PATH_09007_1_Final
 10
704318.612
 20
4557837.95
 30
0.0
  1
L10230 N
 11
704318.612
 21
4557837.95
 31
0.0
 40
59.9999929
 41
1
 50
-41.964
 51
0
 71
0
 62
7
  7
ARIAL
  0
POLYLINE
  8
Data_PATH_09007_1_Final
 66
1
 40
3.59999957
 41
3.59999957
 62
7
 10
704302.981
 20
4557892.35
 30
0.0
  0
VERTEX
  8
Data_PATH_09007_1_Final
 10
704302.981
 20
4557892.35
 30
0.0
  0
VERTEX
  8
Data_PATH_09007_1_Final
 10
704129.411
 20
4558064.86
 30
0.0
  0
VERTEX
  8
Data_PATH_09007_1_Final
 10
703957.474
 20
4558237.97
 30
0.0
  0
VERTEX
  8
Data_PATH_09007_1_Final
 10
703916.402
 20
4558281.4
 30
0.0
  0
VERTEX
  8
Data_PATH_09007_1_Final
 10
703876.249
 20
4558325.38
 30
0.0
  0
VERTEX
  8
Data_PATH_09007_1_Final
 10
703792.135
 20
4558416.63
 30
0.0
  0
VERTEX
  8
Data_PATH_09007_1_Final
 10
703705.049
 20
4558508.35
 30
0.0
  0
VERTEX
  8
Data_PATH_09007_1_Final
 10
703536.812
 20
4558688.23
 30
0.0
  0
VERTEX
  8
Data_PATH_09007_1_Final
 10
703448.001
 20
4558779.23
 30
0.0
  0
VERTEX
  8
Data_PATH_09007_1_Final
 10
703406.131
 20
4558823.75
 30
0.0
  0
VERTEX
  8
Data_PATH_09007_1_Final
 10
703288.835
 20
4558955.03
 30
0.0
  0
VERTEX
  8
Data_PATH_09007_1_Final
 10
703249.708
 20
4558995.99
 30
0.0
  0
VERTEX
  8
Data_PATH_09007_1_Final
 10
703209.32
 20
4559035.21
 30
0.0
  0
VERTEX
  8
Data_PATH_09007_1_Final
 10
703128.717
 20
4559113.08
 30
0.0
  0
VERTEX
  8
Data_PATH_09007_1_Final
 10
703089.543
 20
4559154.43
 30
0.0
  0
VERTEX
  8
Data_PATH_09007_1_Final
 10
703012.68
 20
4559240.14
 30
0.0
  0
VERTEX
  8
Data_PATH_09007_1_Final
 10
702973.757
 20
4559281.18
 30
0.0
  0
VERTEX
  8
Data_PATH_09007_1_Final
 10
702893.976
 20
4559359.38
 30
0.0
  0
VERTEX
  8
Data_PATH_09007_1_Final
 10
702854.407
 20
4559399.18
 30
0.0
  0
VERTEX
  8
Data_PATH_09007_1_Final
 10
702815.414
 20
4559441.26
 30
0.0
  0
VERTEX
  8
Data_PATH_09007_1_Final
 10
702739.671
 20
4559528.33
 30
0.0
  0
VERTEX
  8
Data_PATH_09007_1_Final
 10
702702.006
 20
4559570.14
 30
0.0
  0
VERTEX
  8
Data_PATH_09007_1_Final
 10
702584.31
 20
4559693.88
 30
0.0
  0
VERTEX
  8
Data_PATH_09007_1_Final
 10
702505.325
 20
4559781.31
 30
0.0
  0
VERTEX
  8
Data_PATH_09007_1_Final
 10
702427.479
 20
4559866.03
 30
0.0
  0
VERTEX
  8
Data_PATH_09007_1_Final
 10
702386.533
 20
4559907.45
 30
0.0
  0
VERTEX
  8
Data_PATH_09007_1_Final
 10
702343.529
 20
4559948.17
 30
0.0
  0
VERTEX
  8
Data_PATH_09007_1_Final
 10
702255.243
 20
4560029.09
 30
0.0
  0
VERTEX
  8
Data_PATH_09007_1_Final
 10
702213.309
 20
4560069.91
 30
0.0
  0
VERTEX
  8
Data_PATH_09007_1_Final
 10
702172.646
 20
4560111.61
 30
0.0
  0
VERTEX
  8
Data_PATH_09007_1_Final
 10
702090.651
 20
4560198.12
 30
0.0
  0
VERTEX
  8
Data_PATH_09007_1_Final
 10
702006.762
 20
4560287.56
 30
0.0
  0
VERTEX
  8
Data_PATH_09007_1_Final
 10
701927.412
 20
4560374.44
 30
0.0
  0
VERTEX
  8
Data_PATH_09007_1_Final
 10
701888.631
 20
4560415.54
 30
0.0
  0
VERTEX
  8
Data_PATH_09007_1_Final
 10
701848.209
 20
4560456.56
 30
0.0
  0
VERTEX
  8
Data_PATH_09007_1_Final
 10
701762.944
 20
4560540
 30
0.0
  0
VERTEX
  8
Data_PATH_09007_1_Final
 10
701722.16
 20
4560581.86
 30
0.0
  0
VERTEX
  8
Data_PATH_09007_1_Final
 10
701562.258
 20
4560752.22
 30
0.0
  0
VERTEX
  8
Data_PATH_09007_1_Final
 10
701522.48
 20
4560796.12
 30
0.0
  0
VERTEX
  8
Data_PATH_09007_1_Final
 10
701407.909
 20
4560930.7
 30
0.0
  0
VERTEX
  8
Data_PATH_09007_1_Final
 10
701367.903
 20
4560975.38
 30
0.0
  0
VERTEX
  8
Data_PATH_09007_1_Final
 10
701325.906
 20
4561019.73
 30
0.0
  0
VERTEX
  8
Data_PATH_09007_1_Final
 10
701197.717
 20
4561147.36
 30
0.0
  0
VERTEX
  8
Data_PATH_09007_1_Final
 10
701037.045
 20
4561310.65
 30
0.0
  0
VERTEX
  8
Data_PATH_09007_1_Final
 10
700957.593
 20
4561390.26
 30
0.0
  0
VERTEX
  8
Data_PATH_09007_1_Final
 10
700716.007
 20
4561639.14
 30
0.0
  0
VERTEX
  8
Data_PATH_09007_1_Final
 10
700634.188
 20
4561727.01
 30
0.0
  0
VERTEX
  8
Data_PATH_09007_1_Final
 10
700552.755
 20
4561816.61
 30
0.0
  0
VERTEX
  8
Data_PATH_09007_1_Final
 10
700511.103
 20
4561860.27
 30
0.0
  0
VERTEX
  8
Data_PATH_09007_1_Final
 10
700467.804
 20
4561902.52
 30
0.0
  0
VERTEX
  8
Data_PATH_09007_1_Final
 10
700376.659
 20
4561986.5
 30
0.0
  0
VERTEX
  8
Data_PATH_09007_1_Final
 10
700331.545
 20
4562029.89
 30
0.0
  0
VERTEX
  8
Data_PATH_09007_1_Final
 10
700204.745
 20
4562160.55
 30
0.0
  0
VERTEX
  8
Data_PATH_09007_1_Final
 10
700035.167
 20
4562325.26
 30
0.0
  0
VERTEX
  8
Data_PATH_09007_1_Final
 10
700005.237
 20
4562349.89
 30
0.0
  0
VERTEX
  8
Data_PATH_09007_1_Final
 10
699972.159
 20
4562369.96
 30
0.0
  0
VERTEX
  8
Data_PATH_09007_1_Final
 10
699936.006
 20
4562383.65
 30
0.0
  0
VERTEX
  8
Data_PATH_09007_1_Final
 10
699897.427
 20
4562389.19
 30
0.0
  0
VERTEX
  8
Data_PATH_09007_1_Final
 10
699858.491
 20
4562386.63
 30
0.0
  0
VERTEX
  8
Data_PATH_09007_1_Final
 10
699821.031
 20
4562376.93
 30
0.0
  0
VERTEX
  8
Data_PATH_09007_1_Final
 10
699779.842
 20
4562357.18
 30
0.0
  0
VERTEX
  8
Data_PATH_09007_1_Final
 10
699730.511
 20
4562326.33
 30
0.0
  0
VERTEX
  8
Data_PATH_09007_1_Final
 10
699694.309
 20
4562306.11
 30
0.0
  0
VERTEX
  8
Data_PATH_09007_1_Final
 10
699661.544
 20
4562294.89
 30
0.0
  0
VERTEX
  8
Data_PATH_09007_1_Final
 10
699625.302
 20
4562289.47
 30
0.0
  0
VERTEX
  8
Data_PATH_09007_1_Final
 10
699585.802
 20
4562289.38
 30
0.0
  0
VERTEX
  8
Data_PATH_09007_1_Final
 10
699543.698
 20
4562294.41
 30
0.0
  0
VERTEX
  8
Data_PATH_09007_1_Final
 10
699491.586
 20
4562306.67
 30
0.0
  0
VERTEX
  8
Data_PATH_09007_1_Final
 10
699457.105
 20
4562316.96
 30
0.0
  0
VERTEX
  8
Data_PATH_09007_1_Final
 10
699424.365
 20
4562328.22
 30
0.0
  0
VERTEX
  8
Data_PATH_09007_1_Final
 10
699363.411
 20
4562351.03
 30
0.0
  0
VERTEX
  8
Data_PATH_09007_1_Final
 10
699305.47
 20
4562375.51
 30
0.0
  0
VERTEX
  8
Data_PATH_09007_1_Final
 10
699276.118
 20
4562389.93
 30
0.0
  0
VERTEX
  8
Data_PATH_09007_1_Final
 10
699245.871
 20
4562406.22
 30
0.0
  0
VERTEX
  8
Data_PATH_09007_1_Final
 10
699183.314
 20
4562443.65
 30
0.0
  0
VERTEX
  8
Data_PATH_09007_1_Final
 10
699119.108
 20
4562486
 30
0.0
  0
VERTEX
  8
Data_PATH_09007_1_Final
 10
699056.551
 20
4562530.17
 30
0.0
  0
VERTEX
  8
Data_PATH_09007_1_Final
 10
698998.422
 20
4562574.14
 30
0.0
  0
VERTEX
  8
Data_PATH_09007_1_Final
 10
698970.847
 20
4562596.88
 30
0.0
  0
VERTEX
  8
Data_PATH_09007_1_Final
 10
698943.689
 20
4562620.91
 30
0.0
  0
VERTEX
  8
Data_PATH_09007_1_Final
 10
698916.915
 20
4562646.32
 30
0.0
  0
VERTEX
  8
Data_PATH_09007_1_Final
 10
698890.558
 20
4562673.19
 30
0.0
  0
VERTEX
  8
Data_PATH_09007_1_Final
 10
698864.718
 20
4562701.61
 30
0.0
  0
VERTEX
  8
Data_PATH_09007_1_Final
 10
698840.106
 20
4562731.59
 30
0.0
  0
VERTEX
  8
Data_PATH_09007_1_Final
 10
698816.432
 20
4562762.27
 30
0.0
  0
VERTEX
  8
Data_PATH_09007_1_Final
 10
698793.734
 20
4562793.35
 30
0.0
  0
VERTEX
  8
Data_PATH_09007_1_Final
 10
698750.944
 20
4562855.68
 30
0.0
  0
VERTEX
  8
Data_PATH_09007_1_Final
 10
698702.731
 20
4562928.55
 30
0.0
  0
SEQEND
  8
Data_PATH_09007_1_Final
  0
TEXT
  8
Data_PATH_09007_1_Final
 10
699994.907
 20
4562964.41
 30
0.0
  1
L10240 E
 11
699994.907
 21
4562964.41
 31
0.0
 40
59.9999929
 41
1
 50
-47.743
 51
0
 71
0
 62
7
  7
ARIAL
 72
2
 73
0
  0
TEXT
  8
Data_PATH_09007_1_Final
 10
704501.449
 20
4558004.28
 30
0.0
  1
L10240 E
 11
704501.449
 21
4558004.28
 31
0.0
 40
59.9999929
 41
1
 50
-47.743
 51
0
 71
0
 62
7
  7
ARIAL
  0
POLYLINE
  8
Data_PATH_09007_1_Final
 66
1
 40
3.59999957
 41
3.59999957
 62
7
 10
700049.389
 20
4562949.06
 30
0.0
  0
VERTEX
  8
Data_PATH_09007_1_Final
 10
700049.389
 20
4562949.06
 30
0.0
  0
VERTEX
  8
Data_PATH_09007_1_Final
 10
700089.632
 20
4562905.61
 30
0.0
  0
VERTEX
  8
Data_PATH_09007_1_Final
 10
700127.736
 20
4562860.4
 30
0.0
  0
VERTEX
  8
Data_PATH_09007_1_Final
 10
700145.66
 20
4562836.91
 30
0.0
  0
VERTEX
  8
Data_PATH_09007_1_Final
 10
700162.35
 20
4562812.7
 30
0.0
  0
VERTEX
  8
Data_PATH_09007_1_Final
 10
700193.306
 20
4562763.33
 30
0.0
  0
VERTEX
  8
Data_PATH_09007_1_Final
 10
700220.775
 20
4562714.32
 30
0.0
  0
VERTEX
  8
Data_PATH_09007_1_Final
 10
700269.412
 20
4562617.59
 30
0.0
  0
VERTEX
  8
Data_PATH_09007_1_Final
 10
700320.161
 20
4562513.53
 30
0.0
  0
VERTEX
  8
Data_PATH_09007_1_Final
 10
700344.058
 20
4562464.61
 30
0.0
  0
VERTEX
  8
Data_PATH_09007_1_Final
 10
700367.119
 20
4562420.14
 30
0.0
  0
VERTEX
  8
Data_PATH_09007_1_Final
 10
700392.851
 20
4562375.97
 30
0.0
  0
VERTEX
  8
Data_PATH_09007_1_Final
 10
700407.443
 20
4562353.54
 30
0.0
  0
VERTEX
  8
Data_PATH_09007_1_Final
 10
700424.165
 20
4562331.12
 30
0.0
  0
VERTEX
  8
Data_PATH_09007_1_Final
 10
700442.131
 20
4562309.15
 30
0.0
  0
VERTEX
  8
Data_PATH_09007_1_Final
 10
700461.097
 20
4562287.91
 30
0.0
  0
VERTEX
  8
Data_PATH_09007_1_Final
 10
700500.544
 20
4562248.27
 30
0.0
  0
VERTEX
  8
Data_PATH_09007_1_Final
 10
700579.079
 20
4562174.14
 30
0.0
  0
VERTEX
  8
Data_PATH_09007_1_Final
 10
700660.588
 20
4562094.18
 30
0.0
  0
VERTEX
  8
Data_PATH_09007_1_Final
 10
700702.023
 20
4562053.57
 30
0.0
  0
VERTEX
  8
Data_PATH_09007_1_Final
 10
700740.848
 20
4562013.1
 30
0.0
  0
VERTEX
  8
Data_PATH_09007_1_Final
 10
700777.25
 20
4561971.36
 30
0.0
  0
VERTEX
  8
Data_PATH_09007_1_Final
 10
700812.305
 20
4561927.38
 30
0.0
  0
VERTEX
  8
Data_PATH_09007_1_Final
 10
700848.424
 20
4561882.17
 30
0.0
  0
VERTEX
  8
Data_PATH_09007_1_Final
 10
700887.021
 20
4561838.36
 30
0.0
  0
VERTEX
  8
Data_PATH_09007_1_Final
 10
700928.511
 20
4561797.84
 30
0.0
  0
VERTEX
  8
Data_PATH_09007_1_Final
 10
700970.308
 20
4561759.29
 30
0.0
  0
VERTEX
  8
Data_PATH_09007_1_Final
 10
701011.406
 20
4561720.58
 30
0.0
  0
VERTEX
  8
Data_PATH_09007_1_Final
 10
701052.153
 20
4561679.38
 30
0.0
  0
VERTEX
  8
Data_PATH_09007_1_Final
 10
701132.202
 20
4561595.27
 30
0.0
  0
VERTEX
  8
Data_PATH_09007_1_Final
 10
701210.913
 20
4561514.8
 30
0.0
  0
VERTEX
  8
Data_PATH_09007_1_Final
 10
701248.063
 20
4561473.18
 30
0.0
  0
VERTEX
  8
Data_PATH_09007_1_Final
 10
701283.117
 20
4561430.06
 30
0.0
  0
VERTEX
  8
Data_PATH_09007_1_Final
 10
701317.516
 20
4561386.82
 30
0.0
  0
VERTEX
  8
Data_PATH_09007_1_Final
 10
701354.093
 20
4561344.65
 30
0.0
  0
VERTEX
  8
Data_PATH_09007_1_Final
 10
701373.475
 20
4561324.12
 30
0.0
  0
VERTEX
  8
Data_PATH_09007_1_Final
 10
701393.792
 20
4561304.2
 30
0.0
  0
VERTEX
  8
Data_PATH_09007_1_Final
 10
701435.835
 20
4561265.53
 30
0.0
  0
VERTEX
  8
Data_PATH_09007_1_Final
 10
701479.29
 20
4561227.12
 30
0.0
  0
VERTEX
  8
Data_PATH_09007_1_Final
 10
701522.53
 20
4561187.13
 30
0.0
  0
VERTEX
  8
Data_PATH_09007_1_Final
 10
701563.828
 20
4561145.8
 30
0.0
  0
VERTEX
  8
Data_PATH_09007_1_Final
 10
701829.301
 20
4560862.15
 30
0.0
  0
VERTEX
  8
Data_PATH_09007_1_Final
 10
701867.714
 20
4560823.38
 30
0.0
  0
VERTEX
  8
Data_PATH_09007_1_Final
 10
701946.933
 20
4560745.51
 30
0.0
  0
VERTEX
  8
Data_PATH_09007_1_Final
 10
702059.484
 20
4560627.68
 30
0.0
  0
VERTEX
  8
Data_PATH_09007_1_Final
 10
702098.323
 20
4560588.13
 30
0.0
  0
VERTEX
  8
Data_PATH_09007_1_Final
 10
702221.369
 20
4560471.35
 30
0.0
  0
VERTEX
  8
Data_PATH_09007_1_Final
 10
702260.414
 20
4560432.29
 30
0.0
  0
VERTEX
  8
Data_PATH_09007_1_Final
 10
702334.987
 20
4560352.06
 30
0.0
  0
VERTEX
  8
Data_PATH_09007_1_Final
 10
702373.246
 20
4560312.37
 30
0.0
  0
VERTEX
  8
Data_PATH_09007_1_Final
 10
702413.676
 20
4560272.57
 30
0.0
  0
VERTEX
  8
Data_PATH_09007_1_Final
 10
702455.545
 20
4560231.79
 30
0.0
  0
VERTEX
  8
Data_PATH_09007_1_Final
 10
702495.186
 20
4560190.4
 30
0.0
  0
VERTEX
  8
Data_PATH_09007_1_Final
 10
702530.682
 20
4560148.67
 30
0.0
  0
VERTEX
  8
Data_PATH_09007_1_Final
 10
702562.932
 20
4560106.64
 30
0.0
  0
VERTEX
  8
Data_PATH_09007_1_Final
 10
702596.233
 20
4560063.7
 30
0.0
  0
VERTEX
  8
Data_PATH_09007_1_Final
 10
702633.182
 20
4560019.79
 30
0.0
  0
VERTEX
  8
Data_PATH_09007_1_Final
 10
702674.406
 20
4559975.85
 30
0.0
  0
VERTEX
  8
Data_PATH_09007_1_Final
 10
702715.467
 20
4559933.63
 30
0.0
  0
VERTEX
  8
Data_PATH_09007_1_Final
 10
702867.199
 20
4559771.22
 30
0.0
  0
VERTEX
  8
Data_PATH_09007_1_Final
 10
703020.555
 20
4559616.57
 30
0.0
  0
VERTEX
  8
Data_PATH_09007_1_Final
 10
703137.712
 20
4559499.82
 30
0.0
  0
VERTEX
  8
Data_PATH_09007_1_Final
 10
703174.993
 20
4559461.38
 30
0.0
  0
VERTEX
  8
Data_PATH_09007_1_Final
 10
703243.524
 20
4559386.12
 30
0.0
  0
VERTEX
  8
Data_PATH_09007_1_Final
 10
703391.4
 20
4559227.65
 30
0.0
  0
VERTEX
  8
Data_PATH_09007_1_Final
 10
703462.143
 20
4559150.63
 30
0.0
  0
VERTEX
  8
Data_PATH_09007_1_Final
 10
703499.511
 20
4559112.69
 30
0.0
  0
VERTEX
  8
Data_PATH_09007_1_Final
 10
703577.903
 20
4559036.72
 30
0.0
  0
VERTEX
  8
Data_PATH_09007_1_Final
 10
703615.08
 20
4558998.74
 30
0.0
  0
VERTEX
  8
Data_PATH_09007_1_Final
 10
703722.476
 20
4558880.71
 30
0.0
  0
VERTEX
  8
Data_PATH_09007_1_Final
 10
703760.754
 20
4558842.65
 30
0.0
  0
VERTEX
  8
Data_PATH_09007_1_Final
 10
703800.668
 20
4558807.85
 30
0.0
  0
VERTEX
  8
Data_PATH_09007_1_Final
 10
703880.765
 20
4558741
 30
0.0
  0
VERTEX
  8
Data_PATH_09007_1_Final
 10
703920.134
 20
4558704.39
 30
0.0
  0
VERTEX
  8
Data_PATH_09007_1_Final
 10
703959.112
 20
4558664.91
 30
0.0
  0
VERTEX
  8
Data_PATH_09007_1_Final
 10
704112.225
 20
4558505.54
 30
0.0
  0
VERTEX
  8
Data_PATH_09007_1_Final
 10
704151.119
 20
4558462.75
 30
0.0
  0
VERTEX
  8
Data_PATH_09007_1_Final
 10
704300.85
 20
4558285.96
 30
0.0
  0
VERTEX
  8
Data_PATH_09007_1_Final
 10
704443.823
 20
4558113.54
 30
0.0
  0
VERTEX
  8
Data_PATH_09007_1_Final
 10
704491.375
 20
4558059.98
 30
0.0
  0
SEQEND
  8
Data_PATH_09007_1_Final
  0
TEXT
  8
Data_PATH_09007_1_Final
 10
700176.281
 20
4562966.93
 30
0.0
  1
L10250 E
 11
700176.281
 21
4562966.93
 31
0.0
 40
59.9999929
 41
1
 50
-46.087
 51
0
 71
0
 62
7
  7
ARIAL
 72
2
 73
0
  0
TEXT
  8
Data_PATH_09007_1_Final
 10
704717.731
 20
4558249.82
 30
0.0
  1
L10250 E
 11
704717.731
 21
4558249.82
 31
0.0
 40
59.9999929
 41
1
 50
-46.087
 51
0
 71
0
 62
7
  7
ARIAL
  0
POLYLINE
  8
Data_PATH_09007_1_Final
 66
1
 40
3.59999957
 41
3.59999957
 62
7
 10
700231.184
 20
4562953.16
 30
0.0
  0
VERTEX
  8
Data_PATH_09007_1_Final
 10
700231.184
 20
4562953.16
 30
0.0
  0
VERTEX
  8
Data_PATH_09007_1_Final
 10
700266.829
 20
4562909.7
 30
0.0
  0
VERTEX
  8
Data_PATH_09007_1_Final
 10
700299.585
 20
4562867.28
 30
0.0
  0
VERTEX
  8
Data_PATH_09007_1_Final
 10
700332.874
 20
4562826.08
 30
0.0
  0
VERTEX
  8
Data_PATH_09007_1_Final
 10
700369.229
 20
4562786.24
 30
0.0
  0
VERTEX
  8
Data_PATH_09007_1_Final
 10
700408.133
 20
4562748.26
 30
0.0
  0
VERTEX
  8
Data_PATH_09007_1_Final
 10
700447.091
 20
4562712.09
 30
0.0
  0
VERTEX
  8
Data_PATH_09007_1_Final
 10
700483.971
 20
4562676.3
 30
0.0
  0
VERTEX
  8
Data_PATH_09007_1_Final
 10
700519.145
 20
4562639.34
 30
0.0
  0
VERTEX
  8
Data_PATH_09007_1_Final
 10
700592.043
 20
4562561.9
 30
0.0
  0
VERTEX
  8
Data_PATH_09007_1_Final
 10
700631.382
 20
4562524.58
 30
0.0
  0
VERTEX
  8
Data_PATH_09007_1_Final
 10
700714.932
 20
4562452.16
 30
0.0
  0
VERTEX
  8
Data_PATH_09007_1_Final
 10
700755.638
 20
4562414.05
 30
0.0
  0
VERTEX
  8
Data_PATH_09007_1_Final
 10
700793.482
 20
4562374.58
 30
0.0
  0
VERTEX
  8
Data_PATH_09007_1_Final
 10
700863.767
 20
4562296.01
 30
0.0
  0
VERTEX
  8
Data_PATH_09007_1_Final
 10
700979.227
 20
4562175.24
 30
0.0
  0
VERTEX
  8
Data_PATH_09007_1_Final
 10
701084.743
 20
4562053.01
 30
0.0
  0
VERTEX
  8
Data_PATH_09007_1_Final
 10
701121.374
 20
4562013
 30
0.0
  0
VERTEX
  8
Data_PATH_09007_1_Final
 10
701160.608
 20
4561972.76
 30
0.0
  0
VERTEX
  8
Data_PATH_09007_1_Final
 10
701201.182
 20
4561933.69
 30
0.0
  0
VERTEX
  8
Data_PATH_09007_1_Final
 10
701284.948
 20
4561856.98
 30
0.0
  0
VERTEX
  8
Data_PATH_09007_1_Final
 10
701363.953
 20
4561783.22
 30
0.0
  0
VERTEX
  8
Data_PATH_09007_1_Final
 10
701515.033
 20
4561632.49
 30
0.0
  0
VERTEX
  8
Data_PATH_09007_1_Final
 10
701590.47
 20
4561559.51
 30
0.0
  0
VERTEX
  8
Data_PATH_09007_1_Final
 10
701629.896
 20
4561519.91
 30
0.0
  0
VERTEX
  8
Data_PATH_09007_1_Final
 10
701669.754
 20
4561477.09
 30
0.0
  0
VERTEX
  8
Data_PATH_09007_1_Final
 10
701707.674
 20
4561432.78
 30
0.0
  0
VERTEX
  8
Data_PATH_09007_1_Final
 10
701808.456
 20
4561302.38
 30
0.0
  0
VERTEX
  8
Data_PATH_09007_1_Final
 10
701845.28
 20
4561258.53
 30
0.0
  0
VERTEX
  8
Data_PATH_09007_1_Final
 10
701924.096
 20
4561171.04
 30
0.0
  0
VERTEX
  8
Data_PATH_09007_1_Final
 10
702032.984
 20
4561046.07
 30
0.0
  0
VERTEX
  8
Data_PATH_09007_1_Final
 10
702071.444
 20
4561005.26
 30
0.0
  0
VERTEX
  8
Data_PATH_09007_1_Final
 10
702151.053
 20
4560925.46
 30
0.0
  0
VERTEX
  8
Data_PATH_09007_1_Final
 10
702221.228
 20
4560850.41
 30
0.0
  0
VERTEX
  8
Data_PATH_09007_1_Final
 10
702257.085
 20
4560813.36
 30
0.0
  0
VERTEX
  8
Data_PATH_09007_1_Final
 10
702374.46
 20
4560698.86
 30
0.0
  0
VERTEX
  8
Data_PATH_09007_1_Final
 10
702445.956
 20
4560624.47
 30
0.0
  0
VERTEX
  8
Data_PATH_09007_1_Final
 10
702482.176
 20
4560588.4
 30
0.0
  0
VERTEX
  8
Data_PATH_09007_1_Final
 10
702559.382
 20
4560515.17
 30
0.0
  0
VERTEX
  8
Data_PATH_09007_1_Final
 10
702595.898
 20
4560478.08
 30
0.0
  0
VERTEX
  8
Data_PATH_09007_1_Final
 10
702697.42
 20
4560366.39
 30
0.0
  0
VERTEX
  8
Data_PATH_09007_1_Final
 10
702846.307
 20
4560214.8
 30
0.0
  0
VERTEX
  8
Data_PATH_09007_1_Final
 10
702916.184
 20
4560139.89
 30
0.0
  0
VERTEX
  8
Data_PATH_09007_1_Final
 10
702989.88
 20
4560063.39
 30
0.0
  0
VERTEX
  8
Data_PATH_09007_1_Final
 10
703065.392
 20
4559987.97
 30
0.0
  0
VERTEX
  8
Data_PATH_09007_1_Final
 10
703179.465
 20
4559880.24
 30
0.0
  0
VERTEX
  8
Data_PATH_09007_1_Final
 10
703218.636
 20
4559841.05
 30
0.0
  0
VERTEX
  8
Data_PATH_09007_1_Final
 10
703255.295
 20
4559800.72
 30
0.0
  0
VERTEX
  8
Data_PATH_09007_1_Final
 10
703356.274
 20
4559683.51
 30
0.0
  0
VERTEX
  8
Data_PATH_09007_1_Final
 10
703427.643
 20
4559604.23
 30
0.0
  0
VERTEX
  8
Data_PATH_09007_1_Final
 10
703461.604
 20
4559565.26
 30
0.0
  0
VERTEX
  8
Data_PATH_09007_1_Final
 10
703556.096
 20
4559451.88
 30
0.0
  0
VERTEX
  8
Data_PATH_09007_1_Final
 10
703592.341
 20
4559413.93
 30
0.0
  0
VERTEX
  8
Data_PATH_09007_1_Final
 10
703670.026
 20
4559339.59
 30
0.0
  0
VERTEX
  8
Data_PATH_09007_1_Final
 10
703706.49
 20
4559302.3
 30
0.0
  0
VERTEX
  8
Data_PATH_09007_1_Final
 10
703775.85
 20
4559223.79
 30
0.0
  0
VERTEX
  8
Data_PATH_09007_1_Final
 10
703812.994
 20
4559184.53
 30
0.0
  0
VERTEX
  8
Data_PATH_09007_1_Final
 10
703832.802
 20
4559165.64
 30
0.0
  0
VERTEX
  8
Data_PATH_09007_1_Final
 10
703853.708
 20
4559147.56
 30
0.0
  0
VERTEX
  8
Data_PATH_09007_1_Final
 10
703937.703
 20
4559080.26
 30
0.0
  0
VERTEX
  8
Data_PATH_09007_1_Final
 10
703957.164
 20
4559062.96
 30
0.0
  0
VERTEX
  8
Data_PATH_09007_1_Final
 10
703975.692
 20
4559045.06
 30
0.0
  0
VERTEX
  8
Data_PATH_09007_1_Final
 10
704010.149
 20
4559007.52
 30
0.0
  0
VERTEX
  8
Data_PATH_09007_1_Final
 10
704043.139
 20
4558967.92
 30
0.0
  0
VERTEX
  8
Data_PATH_09007_1_Final
 10
704078.081
 20
4558928.41
 30
0.0
  0
VERTEX
  8
Data_PATH_09007_1_Final
 10
704116.022
 20
4558890.86
 30
0.0
  0
VERTEX
  8
Data_PATH_09007_1_Final
 10
704195.996
 20
4558820.14
 30
0.0
  0
VERTEX
  8
Data_PATH_09007_1_Final
 10
704215.182
 20
4558801.8
 30
0.0
  0
VERTEX
  8
Data_PATH_09007_1_Final
 10
704233.234
 20
4558782.86
 30
0.0
  0
VERTEX
  8
Data_PATH_09007_1_Final
 10
704267.2
 20
4558743.44
 30
0.0
  0
VERTEX
  8
Data_PATH_09007_1_Final
 10
704300.199
 20
4558702.81
 30
0.0
  0
VERTEX
  8
Data_PATH_09007_1_Final
 10
704334.62
 20
4558663.88
 30
0.0
  0
VERTEX
  8
Data_PATH_09007_1_Final
 10
704352.813
 20
4558645.46
 30
0.0
  0
VERTEX
  8
Data_PATH_09007_1_Final
 10
704371.863
 20
4558627.64
 30
0.0
  0
VERTEX
  8
Data_PATH_09007_1_Final
 10
704412.471
 20
4558592.55
 30
0.0
  0
VERTEX
  8
Data_PATH_09007_1_Final
 10
704452.939
 20
4558556
 30
0.0
  0
VERTEX
  8
Data_PATH_09007_1_Final
 10
704472.072
 20
4558537.07
 30
0.0
  0
VERTEX
  8
Data_PATH_09007_1_Final
 10
704490.26
 20
4558517.66
 30
0.0
  0
VERTEX
  8
Data_PATH_09007_1_Final
 10
704558.797
 20
4558436.94
 30
0.0
  0
VERTEX
  8
Data_PATH_09007_1_Final
 10
704577.223
 20
4558416.87
 30
0.0
  0
VERTEX
  8
Data_PATH_09007_1_Final
 10
704597.005
 20
4558397.46
 30
0.0
  0
VERTEX
  8
Data_PATH_09007_1_Final
 10
704639.295
 20
4558360.36
 30
0.0
  0
VERTEX
  8
Data_PATH_09007_1_Final
 10
704706.052
 20
4558305.21
 30
0.0
  0
SEQEND
  8
Data_PATH_09007_1_Final
  0
TEXT
  8
Data_PATH_09007_1_Final
 10
700475.944
 20
4562986.13
 30
0.0
  1
L10260 E
 11
700475.944
 21
4562986.13
 31
0.0
 40
59.9999929
 41
1
 50
-45.792
 51
0
 71
0
 62
7
  7
ARIAL
 72
2
 73
0
  0
TEXT
  8
Data_PATH_09007_1_Final
 10
704899.362
 20
4558438.64
 30
0.0
  1
L10260 E
 11
704899.362
 21
4558438.64
 31
0.0
 40
59.9999929
 41
1
 50
-45.792
 51
0
 71
0
 62
7
  7
ARIAL
  0
POLYLINE
  8
Data_PATH_09007_1_Final
 66
1
 40
3.59999957
 41
3.59999957
 62
7
 10
700530.917
 20
4562972.64
 30
0.0
  0
VERTEX
  8
Data_PATH_09007_1_Final
 10
700530.917
 20
4562972.64
 30
0.0
  0
VERTEX
  8
Data_PATH_09007_1_Final
 10
700566.261
 20
4562941.24
 30
0.0
  0
VERTEX
  8
Data_PATH_09007_1_Final
 10
700600.023
 20
4562907.58
 30
0.0
  0
VERTEX
  8
Data_PATH_09007_1_Final
 10
700633.576
 20
4562873.02
 30
0.0
  0
VERTEX
  8
Data_PATH_09007_1_Final
 10
700669.192
 20
4562840.2
 30
0.0
  0
VERTEX
  8
Data_PATH_09007_1_Final
 10
700688.102
 20
4562824.79
 30
0.0
  0
VERTEX
  8
Data_PATH_09007_1_Final
 10
700707.8
 20
4562810.05
 30
0.0
  0
VERTEX
  8
Data_PATH_09007_1_Final
 10
700748.901
 20
4562781.47
 30
0.0
  0
VERTEX
  8
Data_PATH_09007_1_Final
 10
700789.291
 20
4562751.43
 30
0.0
  0
VERTEX
  8
Data_PATH_09007_1_Final
 10
700808.471
 20
4562735.33
 30
0.0
  0
VERTEX
  8
Data_PATH_09007_1_Final
 10
700826.504
 20
4562718.3
 30
0.0
  0
VERTEX
  8
Data_PATH_09007_1_Final
 10
700895.74
 20
4562647.31
 30
0.0
  0
VERTEX
  8
Data_PATH_09007_1_Final
 10
700932.974
 20
4562613.4
 30
0.0
  0
VERTEX
  8
Data_PATH_09007_1_Final
 10
701014.625
 20
4562548.43
 30
0.0
  0
VERTEX
  8
Data_PATH_09007_1_Final
 10
701033.969
 20
4562531.53
 30
0.0
  0
VERTEX
  8
Data_PATH_09007_1_Final
 10
701052.27
 20
4562514.2
 30
0.0
  0
VERTEX
  8
Data_PATH_09007_1_Final
 10
701069.532
 20
4562496.33
 30
0.0
  0
VERTEX
  8
Data_PATH_09007_1_Final
 10
701085.85
 20
4562477.73
 30
0.0
  0
VERTEX
  8
Data_PATH_09007_1_Final
 10
701149.382
 20
4562399.12
 30
0.0
  0
VERTEX
  8
Data_PATH_09007_1_Final
 10
701183.343
 20
4562361.37
 30
0.0
  0
VERTEX
  8
Data_PATH_09007_1_Final
 10
701254.868
 20
4562288.1
 30
0.0
  0
VERTEX
  8
Data_PATH_09007_1_Final
 10
701290.06
 20
4562249.23
 30
0.0
  0
VERTEX
  8
Data_PATH_09007_1_Final
 10
701324.072
 20
4562209.52
 30
0.0
  0
VERTEX
  8
Data_PATH_09007_1_Final
 10
701358.029
 20
4562170.47
 30
0.0
  0
VERTEX
  8
Data_PATH_09007_1_Final
 10
701393.222
 20
4562132.52
 30
0.0
  0
VERTEX
  8
Data_PATH_09007_1_Final
 10
701502.39
 20
4562022.32
 30
0.0
  0
VERTEX
  8
Data_PATH_09007_1_Final
 10
701537.721
 20
4561985.03
 30
0.0
  0
VERTEX
  8
Data_PATH_09007_1_Final
 10
701642.135
 20
4561871.99
 30
0.0
  0
VERTEX
  8
Data_PATH_09007_1_Final
 10
701676.026
 20
4561837.73
 30
0.0
  0
VERTEX
  8
Data_PATH_09007_1_Final
 10
701746.147
 20
4561770.09
 30
0.0
  0
VERTEX
  8
Data_PATH_09007_1_Final
 10
701783.388
 20
4561732.65
 30
0.0
  0
VERTEX
  8
Data_PATH_09007_1_Final
 10
701888.563
 20
4561619.84
 30
0.0
  0
VERTEX
  8
Data_PATH_09007_1_Final
 10
701996.691
 20
4561514.22
 30
0.0
  0
VERTEX
  8
Data_PATH_09007_1_Final
 10
702091.543
 20
4561413.79
 30
0.0
  0
VERTEX
  8
Data_PATH_09007_1_Final
 10
702126.069
 20
4561380.89
 30
0.0
  0
VERTEX
  8
Data_PATH_09007_1_Final
 10
702198.007
 20
4561316.01
 30
0.0
  0
VERTEX
  8
Data_PATH_09007_1_Final
 10
702231.781
 20
4561282.81
 30
0.0
  0
VERTEX
  8
Data_PATH_09007_1_Final
 10
702398.357
 20
4561102.37
 30
0.0
  0
VERTEX
  8
Data_PATH_09007_1_Final
 10
702493.971
 20
4560989.07
 30
0.0
  0
VERTEX
  8
Data_PATH_09007_1_Final
 10
702599.594
 20
4560875.64
 30
0.0
  0
VERTEX
  8
Data_PATH_09007_1_Final
 10
702632.817
 20
4560837.57
 30
0.0
  0
VERTEX
  8
Data_PATH_09007_1_Final
 10
702694.603
 20
4560761.7
 30
0.0
  0
VERTEX
  8
Data_PATH_09007_1_Final
 10
702726.679
 20
4560723.88
 30
0.0
  0
VERTEX
  8
Data_PATH_09007_1_Final
 10
702760.965
 20
4560686.27
 30
0.0
  0
VERTEX
  8
Data_PATH_09007_1_Final
 10
702796.79
 20
4560649.26
 30
0.0
  0
VERTEX
  8
Data_PATH_09007_1_Final
 10
702833.717
 20
4560613.56
 30
0.0
  0
VERTEX
  8
Data_PATH_09007_1_Final
 10
702908.738
 20
4560543.57
 30
0.0
  0
VERTEX
  8
Data_PATH_09007_1_Final
 10
702981.07
 20
4560473.29
 30
0.0
  0
VERTEX
  8
Data_PATH_09007_1_Final
 10
703046.879
 20
4560404.67
 30
0.0
  0
VERTEX
  8
Data_PATH_09007_1_Final
 10
703113.185
 20
4560337.64
 30
0.0
  0
VERTEX
  8
Data_PATH_09007_1_Final
 10
703183.246
 20
4560268.69
 30
0.0
  0
VERTEX
  8
Data_PATH_09007_1_Final
 10
703217.658
 20
4560233.22
 30
0.0
  0
VERTEX
  8
Data_PATH_09007_1_Final
 10
703315.47
 20
4560127.71
 30
0.0
  0
VERTEX
  8
Data_PATH_09007_1_Final
 10
703384.249
 20
4560056.78
 30
0.0
  0
VERTEX
  8
Data_PATH_09007_1_Final
 10
703417.968
 20
4560020.89
 30
0.0
  0
VERTEX
  8
Data_PATH_09007_1_Final
 10
703512.941
 20
4559913.15
 30
0.0
  0
VERTEX
  8
Data_PATH_09007_1_Final
 10
703547.444
 20
4559875.22
 30
0.0
  0
VERTEX
  8
Data_PATH_09007_1_Final
 10
703621.175
 20
4559798.68
 30
0.0
  0
VERTEX
  8
Data_PATH_09007_1_Final
 10
703656.537
 20
4559760.45
 30
0.0
  0
VERTEX
  8
Data_PATH_09007_1_Final
 10
703689.467
 20
4559720.03
 30
0.0
  0
VERTEX
  8
Data_PATH_09007_1_Final
 10
703755.211
 20
4559633.93
 30
0.0
  0
VERTEX
  8
Data_PATH_09007_1_Final
 10
703773.54
 20
4559612.6
 30
0.0
  0
VERTEX
  8
Data_PATH_09007_1_Final
 10
703793.022
 20
4559591.88
 30
0.0
  0
VERTEX
  8
Data_PATH_09007_1_Final
 10
703813.808
 20
4559571.91
 30
0.0
  0
VERTEX
  8
Data_PATH_09007_1_Final
 10
703835.965
 20
4559552.85
 30
0.0
  0
VERTEX
  8
Data_PATH_09007_1_Final
 10
703883.133
 20
4559518.59
 30
0.0
  0
VERTEX
  8
Data_PATH_09007_1_Final
 10
703953.506
 20
4559470.88
 30
0.0
  0
VERTEX
  8
Data_PATH_09007_1_Final
 10
703975.521
 20
4559454
 30
0.0
  0
VERTEX
  8
Data_PATH_09007_1_Final
 10
703996.595
 20
4559436.07
 30
0.0
  0
VERTEX
  8
Data_PATH_09007_1_Final
 10
704016.737
 20
4559417.14
 30
0.0
  0
VERTEX
  8
Data_PATH_09007_1_Final
 10
704036.023
 20
4559397.3
 30
0.0
  0
VERTEX
  8
Data_PATH_09007_1_Final
 10
704054.592
 20
4559376.61
 30
0.0
  0
VERTEX
  8
Data_PATH_09007_1_Final
 10
704126.363
 20
4559290.8
 30
0.0
  0
VERTEX
  8
Data_PATH_09007_1_Final
 10
704162.805
 20
4559250.12
 30
0.0
  0
VERTEX
  8
Data_PATH_09007_1_Final
 10
704317.471
 20
4559088.05
 30
0.0
  0
VERTEX
  8
Data_PATH_09007_1_Final
 10
704433.721
 20
4558971.51
 30
0.0
  0
VERTEX
  8
Data_PATH_09007_1_Final
 10
704470.049
 20
4558932.91
 30
0.0
  0
VERTEX
  8
Data_PATH_09007_1_Final
 10
704540.393
 20
4558855.96
 30
0.0
  0
VERTEX
  8
Data_PATH_09007_1_Final
 10
704609.136
 20
4558778.84
 30
0.0
  0
VERTEX
  8
Data_PATH_09007_1_Final
 10
704675.019
 20
4558701.95
 30
0.0
  0
VERTEX
  8
Data_PATH_09007_1_Final
 10
704708.398
 20
4558665.65
 30
0.0
  0
VERTEX
  8
Data_PATH_09007_1_Final
 10
704742.691
 20
4558631.93
 30
0.0
  0
VERTEX
  8
Data_PATH_09007_1_Final
 10
704815.151
 20
4558566.49
 30
0.0
  0
VERTEX
  8
Data_PATH_09007_1_Final
 10
704851.217
 20
4558531.81
 30
0.0
  0
VERTEX
  8
Data_PATH_09007_1_Final
 10
704887.398
 20
4558493.96
 30
0.0
  0
SEQEND
  8
Data_PATH_09007_1_Final
  0
TEXT
  8
Data_PATH_09007_1_Final
 10
700880.875
 20
4563019.38
 30
0.0
  1
L10270 E
 11
700880.875
 21
4563019.38
 31
0.0
 40
59.9999929
 41
1
 50
-46.095
 51
0
 71
0
 62
7
  7
ARIAL
 72
2
 73
0
  0
TEXT
  8
Data_PATH_09007_1_Final
 10
705047.248
 20
4558690.6
 30
0.0
  1
L10270 E
 11
705047.248
 21
4558690.6
 31
0.0
 40
59.9999929
 41
1
 50
-46.095
 51
0
 71
0
 62
7
  7
ARIAL
  0
POLYLINE
  8
Data_PATH_09007_1_Final
 66
1
 40
3.59999957
 41
3.59999957
 62
7
 10
705035.577
 20
4558745.99
 30
0.0
  0
VERTEX
  8
Data_PATH_09007_1_Final
 10
705035.577
 20
4558745.99
 30
0.0
  0
VERTEX
  8
Data_PATH_09007_1_Final
 10
704993.73
 20
4558786.39
 30
0.0
  0
VERTEX
  8
Data_PATH_09007_1_Final
 10
704952.335
 20
4558830.57
 30
0.0
  0
VERTEX
  8
Data_PATH_09007_1_Final
 10
704870.784
 20
4558926.22
 30
0.0
  0
VERTEX
  8
Data_PATH_09007_1_Final
 10
704830.819
 20
4558971.46
 30
0.0
  0
VERTEX
  8
Data_PATH_09007_1_Final
 10
704750.622
 20
4559055.31
 30
0.0
  0
VERTEX
  8
Data_PATH_09007_1_Final
 10
704710.521
 20
4559099.16
 30
0.0
  0
VERTEX
  8
Data_PATH_09007_1_Final
 10
704594.056
 20
4559237.51
 30
0.0
  0
VERTEX
  8
Data_PATH_09007_1_Final
 10
704555.014
 20
4559280.11
 30
0.0
  0
VERTEX
  8
Data_PATH_09007_1_Final
 10
704474.789
 20
4559361.93
 30
0.0
  0
VERTEX
  8
Data_PATH_09007_1_Final
 10
704388.729
 20
4559448.05
 30
0.0
  0
VERTEX
  8
Data_PATH_09007_1_Final
 10
704210.737
 20
4559619.17
 30
0.0
  0
VERTEX
  8
Data_PATH_09007_1_Final
 10
704035.489
 20
4559800.81
 30
0.0
  0
VERTEX
  8
Data_PATH_09007_1_Final
 10
703909.341
 20
4559928.69
 30
0.0
  0
VERTEX
  8
Data_PATH_09007_1_Final
 10
703785.345
 20
4560062.4
 30
0.0
  0
VERTEX
  8
Data_PATH_09007_1_Final
 10
703743.999
 20
4560104.92
 30
0.0
  0
VERTEX
  8
Data_PATH_09007_1_Final
 10
703659.429
 20
4560188.64
 30
0.0
  0
VERTEX
  8
Data_PATH_09007_1_Final
 10
703617.781
 20
4560231.15
 30
0.0
  0
VERTEX
  8
Data_PATH_09007_1_Final
 10
703495.177
 20
4560361.52
 30
0.0
  0
VERTEX
  8
Data_PATH_09007_1_Final
 10
703452.863
 20
4560404.84
 30
0.0
  0
VERTEX
  8
Data_PATH_09007_1_Final
 10
703365.556
 20
4560490.4
 30
0.0
  0
VERTEX
  8
Data_PATH_09007_1_Final
 10
703322.504
 20
4560533.36
 30
0.0
  0
VERTEX
  8
Data_PATH_09007_1_Final
 10
703280.93
 20
4560577.09
 30
0.0
  0
VERTEX
  8
Data_PATH_09007_1_Final
 10
703200.318
 20
4560665.68
 30
0.0
  0
VERTEX
  8
Data_PATH_09007_1_Final
 10
703159.062
 20
4560709.28
 30
0.0
  0
VERTEX
  8
Data_PATH_09007_1_Final
 10
703031.967
 20
4560838.14
 30
0.0
  0
VERTEX
  8
Data_PATH_09007_1_Final
 10
702908.664
 20
4560972.03
 30
0.0
  0
VERTEX
  8
Data_PATH_09007_1_Final
 10
702866.558
 20
4561015.61
 30
0.0
  0
VERTEX
  8
Data_PATH_09007_1_Final
 10
702779.91
 20
4561100.8
 30
0.0
  0
VERTEX
  8
Data_PATH_09007_1_Final
 10
702735.973
 20
4561144.5
 30
0.0
  0
VERTEX
  8
Data_PATH_09007_1_Final
 10
702692.434
 20
4561189.97
 30
0.0
  0
VERTEX
  8
Data_PATH_09007_1_Final
 10
702604.159
 20
4561285.64
 30
0.0
  0
VERTEX
  8
Data_PATH_09007_1_Final
 10
702559.413
 20
4561331.71
 30
0.0
  0
VERTEX
  8
Data_PATH_09007_1_Final
 10
702342.705
 20
4561541.87
 30
0.0
  0
VERTEX
  8
Data_PATH_09007_1_Final
 10
702210.443
 20
4561663.96
 30
0.0
  0
VERTEX
  8
Data_PATH_09007_1_Final
 10
702188.819
 20
4561685.26
 30
0.0
  0
VERTEX
  8
Data_PATH_09007_1_Final
 10
702168.39
 20
4561706.73
 30
0.0
  0
VERTEX
  8
Data_PATH_09007_1_Final
 10
702129.748
 20
4561750.42
 30
0.0
  0
VERTEX
  8
Data_PATH_09007_1_Final
 10
702054.87
 20
4561839.58
 30
0.0
  0
VERTEX
  8
Data_PATH_09007_1_Final
 10
702015.72
 20
4561883.66
 30
0.0
  0
VERTEX
  8
Data_PATH_09007_1_Final
 10
701895.13
 20
4562011.54
 30
0.0
  0
VERTEX
  8
Data_PATH_09007_1_Final
 10
701510.291
 20
4562447.31
 30
0.0
  0
VERTEX
  8
Data_PATH_09007_1_Final
 10
701469.394
 20
4562491.11
 30
0.0
  0
VERTEX
  8
Data_PATH_09007_1_Final
 10
701428.169
 20
4562532.85
 30
0.0
  0
VERTEX
  8
Data_PATH_09007_1_Final
 10
701298.314
 20
4562656.04
 30
0.0
  0
VERTEX
  8
Data_PATH_09007_1_Final
 10
701166.249
 20
4562784.92
 30
0.0
  0
VERTEX
  8
Data_PATH_09007_1_Final
 10
701075.816
 20
4562870.05
 30
0.0
  0
VERTEX
  8
Data_PATH_09007_1_Final
 10
700985.178
 20
4562956.9
 30
0.0
  0
VERTEX
  8
Data_PATH_09007_1_Final
 10
700935.776
 20
4563005.6
 30
0.0
  0
SEQEND
  8
Data_PATH_09007_1_Final
  0
TEXT
  8
Data_PATH_09007_1_Final
 10
701275.048
 20
4563021.53
 30
0.0
  1
L10280 E
 11
701275.048
 21
4563021.53
 31
0.0
 40
59.9999929
 41
1
 50
-45.824
 51
0
 71
0
 62
7
  7
ARIAL
 72
2
 73
0
  0
TEXT
  8
Data_PATH_09007_1_Final
 10
705250.017
 20
4558930.59
 30
0.0
  1
L10280 E
 11
705250.017
 21
4558930.59
 31
0.0
 40
59.9999929
 41
1
 50
-45.824
 51
0
 71
0
 62
7
  7
ARIAL
  0
POLYLINE
  8
Data_PATH_09007_1_Final
 66
1
 40
3.59999957
 41
3.59999957
 62
7
 10
705238.083
 20
4558985.92
 30
0.0
  0
VERTEX
  8
Data_PATH_09007_1_Final
 10
705238.083
 20
4558985.92
 30
0.0
  0
VERTEX
  8
Data_PATH_09007_1_Final
 10
705202.569
 20
4559008.19
 30
0.0
  0
VERTEX
  8
Data_PATH_09007_1_Final
 10
705167.922
 20
4559031.35
 30
0.0
  0
VERTEX
  8
Data_PATH_09007_1_Final
 10
705101.587
 20
4559078.05
 30
0.0
  0
VERTEX
  8
Data_PATH_09007_1_Final
 10
705070.235
 20
4559102.17
 30
0.0
  0
VERTEX
  8
Data_PATH_09007_1_Final
 10
705040.976
 20
4559128.48
 30
0.0
  0
VERTEX
  8
Data_PATH_09007_1_Final
 10
704985.862
 20
4559185.82
 30
0.0
  0
VERTEX
  8
Data_PATH_09007_1_Final
 10
704957.657
 20
4559214.14
 30
0.0
  0
VERTEX
  8
Data_PATH_09007_1_Final
 10
704928.2
 20
4559242.01
 30
0.0
  0
VERTEX
  8
Data_PATH_09007_1_Final
 10
704898.764
 20
4559270.27
 30
0.0
  0
VERTEX
  8
Data_PATH_09007_1_Final
 10
704870.214
 20
4559299.64
 30
0.0
  0
VERTEX
  8
Data_PATH_09007_1_Final
 10
704785.505
 20
4559394.16
 30
0.0
  0
VERTEX
  8
Data_PATH_09007_1_Final
 10
704700.29
 20
4559480.72
 30
0.0
  0
VERTEX
  8
Data_PATH_09007_1_Final
 10
704579.953
 20
4559609.06
 30
0.0
  0
VERTEX
  8
Data_PATH_09007_1_Final
 10
704521.235
 20
4559670.2
 30
0.0
  0
VERTEX
  8
Data_PATH_09007_1_Final
 10
704400.654
 20
4559805.34
 30
0.0
  0
VERTEX
  8
Data_PATH_09007_1_Final
 10
704303.273
 20
4559905.67
 30
0.0
  0
VERTEX
  8
Data_PATH_09007_1_Final
 10
704270.334
 20
4559940.9
 30
0.0
  0
VERTEX
  8
Data_PATH_09007_1_Final
 10
704144.565
 20
4560080.86
 30
0.0
  0
VERTEX
  8
Data_PATH_09007_1_Final
 10
704112.107
 20
4560114.8
 30
0.0
  0
VERTEX
  8
Data_PATH_09007_1_Final
 10
704078.994
 20
4560147.85
 30
0.0
  0
VERTEX
  8
Data_PATH_09007_1_Final
 10
704014.083
 20
4560213.24
 30
0.0
  0
VERTEX
  8
Data_PATH_09007_1_Final
 10
703950.822
 20
4560280.96
 30
0.0
  0
VERTEX
  8
Data_PATH_09007_1_Final
 10
703918.25
 20
4560314.63
 30
0.0
  0
VERTEX
  8
Data_PATH_09007_1_Final
 10
703884.497
 20
4560347.86
 30
0.0
  0
VERTEX
  8
Data_PATH_09007_1_Final
 10
703850.274
 20
4560381.1
 30
0.0
  0
VERTEX
  8
Data_PATH_09007_1_Final
 10
703816.396
 20
4560415.8
 30
0.0
  0
VERTEX
  8
Data_PATH_09007_1_Final
 10
703783.622
 20
4560451.64
 30
0.0
  0
VERTEX
  8
Data_PATH_09007_1_Final
 10
703751.429
 20
4560488.4
 30
0.0
  0
VERTEX
  8
Data_PATH_09007_1_Final
 10
703718.628
 20
4560524.29
 30
0.0
  0
VERTEX
  8
Data_PATH_09007_1_Final
 10
703683.995
 20
4560559.22
 30
0.0
  0
VERTEX
  8
Data_PATH_09007_1_Final
 10
703612.632
 20
4560628.33
 30
0.0
  0
VERTEX
  8
Data_PATH_09007_1_Final
 10
703544.515
 20
4560699.12
 30
0.0
  0
VERTEX
  8
Data_PATH_09007_1_Final
 10
703510.56
 20
4560734.7
 30
0.0
  0
VERTEX
  8
Data_PATH_09007_1_Final
 10
703475.308
 20
4560769.99
 30
0.0
  0
VERTEX
  8
Data_PATH_09007_1_Final
 10
703402.442
 20
4560840.87
 30
0.0
  0
VERTEX
  8
Data_PATH_09007_1_Final
 10
703367.541
 20
4560876.42
 30
0.0
  0
VERTEX
  8
Data_PATH_09007_1_Final
 10
703265.909
 20
4560986.63
 30
0.0
  0
VERTEX
  8
Data_PATH_09007_1_Final
 10
703130.262
 20
4561125.83
 30
0.0
  0
VERTEX
  8
Data_PATH_09007_1_Final
 10
703062.009
 20
4561196.26
 30
0.0
  0
VERTEX
  8
Data_PATH_09007_1_Final
 10
702989.47
 20
4561265.52
 30
0.0
  0
VERTEX
  8
Data_PATH_09007_1_Final
 10
702953.854
 20
4561301.07
 30
0.0
  0
VERTEX
  8
Data_PATH_09007_1_Final
 10
702920.132
 20
4561336.41
 30
0.0
  0
VERTEX
  8
Data_PATH_09007_1_Final
 10
702856.332
 20
4561406.23
 30
0.0
  0
VERTEX
  8
Data_PATH_09007_1_Final
 10
702789.514
 20
4561477.07
 30
0.0
  0
VERTEX
  8
Data_PATH_09007_1_Final
 10
702755.627
 20
4561514.48
 30
0.0
  0
VERTEX
  8
Data_PATH_09007_1_Final
 10
702723.335
 20
4561552.26
 30
0.0
  0
VERTEX
  8
Data_PATH_09007_1_Final
 10
702691.683
 20
4561589.25
 30
0.0
  0
VERTEX
  8
Data_PATH_09007_1_Final
 10
702659.448
 20
4561624.65
 30
0.0
  0
VERTEX
  8
Data_PATH_09007_1_Final
 10
702558.272
 20
4561726.85
 30
0.0
  0
VERTEX
  8
Data_PATH_09007_1_Final
 10
702494.519
 20
4561796.71
 30
0.0
  0
VERTEX
  8
Data_PATH_09007_1_Final
 10
702463.301
 20
4561829.27
 30
0.0
  0
VERTEX
  8
Data_PATH_09007_1_Final
 10
702397.337
 20
4561892.1
 30
0.0
  0
VERTEX
  8
Data_PATH_09007_1_Final
 10
702365.232
 20
4561922.61
 30
0.0
  0
VERTEX
  8
Data_PATH_09007_1_Final
 10
702334.579
 20
4561953.2
 30
0.0
  0
VERTEX
  8
Data_PATH_09007_1_Final
 10
702271.899
 20
4562018.82
 30
0.0
  0
VERTEX
  8
Data_PATH_09007_1_Final
 10
702206.606
 20
4562084.18
 30
0.0
  0
VERTEX
  8
Data_PATH_09007_1_Final
 10
702174.893
 20
4562115
 30
0.0
  0
VERTEX
  8
Data_PATH_09007_1_Final
 10
702143.338
 20
4562147.3
 30
0.0
  0
VERTEX
  8
Data_PATH_09007_1_Final
 10
702111.595
 20
4562182.33
 30
0.0
  0
VERTEX
  8
Data_PATH_09007_1_Final
 10
702079.91
 20
4562219.28
 30
0.0
  0
VERTEX
  8
Data_PATH_09007_1_Final
 10
702019.034
 20
4562289.83
 30
0.0
  0
VERTEX
  8
Data_PATH_09007_1_Final
 10
701956.814
 20
4562356.09
 30
0.0
  0
VERTEX
  8
Data_PATH_09007_1_Final
 10
701890.24
 20
4562427.65
 30
0.0
  0
VERTEX
  8
Data_PATH_09007_1_Final
 10
701827.25
 20
4562498.41
 30
0.0
  0
VERTEX
  8
Data_PATH_09007_1_Final
 10
701796.867
 20
4562531.58
 30
0.0
  0
VERTEX
  8
Data_PATH_09007_1_Final
 10
701765.403
 20
4562564.29
 30
0.0
  0
VERTEX
  8
Data_PATH_09007_1_Final
 10
701629.854
 20
4562701.16
 30
0.0
  0
VERTEX
  8
Data_PATH_09007_1_Final
 10
701561.02
 20
4562772.2
 30
0.0
  0
VERTEX
  8
Data_PATH_09007_1_Final
 10
701457.725
 20
4562883.14
 30
0.0
  0
VERTEX
  8
Data_PATH_09007_1_Final
 10
701423.853
 20
4562917.3
 30
0.0
  0
VERTEX
  8
Data_PATH_09007_1_Final
 10
701350.72
 20
4562986.88
 30
0.0
  0
VERTEX
  8
Data_PATH_09007_1_Final
 10
701330.014
 20
4563008.01
 30
0.0
  0
SEQEND
  8
Data_PATH_09007_1_Final
  0
TEXT
  8
Data_PATH_09007_1_Final
 10
701694.553
 20
4563021.83
 30
0.0
  1
L10290 E
 11
701694.553
 21
4563021.83
 31
0.0
 40
59.9999929
 41
1
 50
-46.342
 51
0
 71
0
 62
7
  7
ARIAL
 72
2
 73
0
  0
TEXT
  8
Data_PATH_09007_1_Final
 10
705446.713
 20
4559089.69
 30
0.0
  1
L10290 E
 11
705446.713
 21
4559089.69
 31
0.0
 40
59.9999929
 41
1
 50
-46.342
 51
0
 71
0
 62
7
  7
ARIAL
  0
POLYLINE
  8
Data_PATH_09007_1_Final
 66
1
 40
3.59999957
 41
3.59999957
 62
7
 10
701749.394
 20
4563007.81
 30
0.0
  0
VERTEX
  8
Data_PATH_09007_1_Final
 10
701749.394
 20
4563007.81
 30
0.0
  0
VERTEX
  8
Data_PATH_09007_1_Final
 10
701788.67
 20
4562970.86
 30
0.0
  0
VERTEX
  8
Data_PATH_09007_1_Final
 10
701826.954
 20
4562932.53
 30
0.0
  0
VERTEX
  8
Data_PATH_09007_1_Final
 10
701864.202
 20
4562892.14
 30
0.0
  0
VERTEX
  8
Data_PATH_09007_1_Final
 10
701900.993
 20
4562850.66
 30
0.0
  0
VERTEX
  8
Data_PATH_09007_1_Final
 10
701974.455
 20
4562768.95
 30
0.0
  0
VERTEX
  8
Data_PATH_09007_1_Final
 10
702046.362
 20
4562686.51
 30
0.0
  0
VERTEX
  8
Data_PATH_09007_1_Final
 10
702122.119
 20
4562599.58
 30
0.0
  0
VERTEX
  8
Data_PATH_09007_1_Final
 10
702200.738
 20
4562514.69
 30
0.0
  0
VERTEX
  8
Data_PATH_09007_1_Final
 10
702276.72
 20
4562435.33
 30
0.0
  0
VERTEX
  8
Data_PATH_09007_1_Final
 10
702354.95
 20
4562351.52
 30
0.0
  0
VERTEX
  8
Data_PATH_09007_1_Final
 10
702432.488
 20
4562267.08
 30
0.0
  0
VERTEX
  8
Data_PATH_09007_1_Final
 10
702504.799
 20
4562183.8
 30
0.0
  0
VERTEX
  8
Data_PATH_09007_1_Final
 10
702542.226
 20
4562140.58
 30
0.0
  0
VERTEX
  8
Data_PATH_09007_1_Final
 10
702581.833
 20
4562096.99
 30
0.0
  0
VERTEX
  8
Data_PATH_09007_1_Final
 10
702740.395
 20
4561933.77
 30
0.0
  0
VERTEX
  8
Data_PATH_09007_1_Final
 10
702780.287
 20
4561894.78
 30
0.0
  0
VERTEX
  8
Data_PATH_09007_1_Final
 10
702823.393
 20
4561856.16
 30
0.0
  0
VERTEX
  8
Data_PATH_09007_1_Final
 10
702911.721
 20
4561781.36
 30
0.0
  0
VERTEX
  8
Data_PATH_09007_1_Final
 10
702952.215
 20
4561742.67
 30
0.0
  0
VERTEX
  8
Data_PATH_09007_1_Final
 10
702989.698
 20
4561701.88
 30
0.0
  0
VERTEX
  8
Data_PATH_09007_1_Final
 10
703062.048
 20
4561614.29
 30
0.0
  0
VERTEX
  8
Data_PATH_09007_1_Final
 10
703100.029
 20
4561570.51
 30
0.0
  0
VERTEX
  8
Data_PATH_09007_1_Final
 10
703140.457
 20
4561528.73
 30
0.0
  0
VERTEX
  8
Data_PATH_09007_1_Final
 10
703221.086
 20
4561447.55
 30
0.0
  0
VERTEX
  8
Data_PATH_09007_1_Final
 10
703258.743
 20
4561405.91
 30
0.0
  0
VERTEX
  8
Data_PATH_09007_1_Final
 10
703335.808
 20
4561317.46
 30
0.0
  0
VERTEX
  8
Data_PATH_09007_1_Final
 10
703376.05
 20
4561274.26
 30
0.0
  0
VERTEX
  8
Data_PATH_09007_1_Final
 10
703454.933
 20
4561195.28
 30
0.0
  0
VERTEX
  8
Data_PATH_09007_1_Final
 10
703608.331
 20
4561037.93
 30
0.0
  0
VERTEX
  8
Data_PATH_09007_1_Final
 10
703685.391
 20
4560962.15
 30
0.0
  0
VERTEX
  8
Data_PATH_09007_1_Final
 10
703766.283
 20
4560885.8
 30
0.0
  0
VERTEX
  8
Data_PATH_09007_1_Final
 10
703805.598
 20
4560846.97
 30
0.0
  0
VERTEX
  8
Data_PATH_09007_1_Final
 10
703843.093
 20
4560807.65
 30
0.0
  0
VERTEX
  8
Data_PATH_09007_1_Final
 10
703995.21
 20
4560644.59
 30
0.0
  0
VERTEX
  8
Data_PATH_09007_1_Final
 10
704143.822
 20
4560482.41
 30
0.0
  0
VERTEX
  8
Data_PATH_09007_1_Final
 10
704223.78
 20
4560396.87
 30
0.0
  0
VERTEX
  8
Data_PATH_09007_1_Final
 10
704372.01
 20
4560232.62
 30
0.0
  0
VERTEX
  8
Data_PATH_09007_1_Final
 10
704448.66
 20
4560152.29
 30
0.0
  0
VERTEX
  8
Data_PATH_09007_1_Final
 10
704562.523
 20
4560029.88
 30
0.0
  0
VERTEX
  8
Data_PATH_09007_1_Final
 10
704599.602
 20
4559992.11
 30
0.0
  0
VERTEX
  8
Data_PATH_09007_1_Final
 10
704724.51
 20
4559873.41
 30
0.0
  0
VERTEX
  8
Data_PATH_09007_1_Final
 10
704845.465
 20
4559750.74
 30
0.0
  0
VERTEX
  8
Data_PATH_09007_1_Final
 10
704924.805
 20
4559671.72
 30
0.0
  0
VERTEX
  8
Data_PATH_09007_1_Final
 10
705005.44
 20
4559589.78
 30
0.0
  0
VERTEX
  8
Data_PATH_09007_1_Final
 10
705162.209
 20
4559425.62
 30
0.0
  0
VERTEX
  8
Data_PATH_09007_1_Final
 10
705316.8
 20
4559262.02
 30
0.0
  0
VERTEX
  8
Data_PATH_09007_1_Final
 10
705435.28
 20
4559145.13
 30
0.0
  0
SEQEND
  8
Data_PATH_09007_1_Final
  0
TEXT
  8
Data_PATH_09007_1_Final
 10
702021.47
 20
4563063.47
 30
0.0
  1
L10300 E
 11
702021.47
 21
4563063.47
 31
0.0
 40
59.9999929
 41
1
 50
-46.378
 51
0
 71
0
 62
7
  7
ARIAL
 72
2
 73
0
  0
TEXT
  8
Data_PATH_09007_1_Final
 10
705588.365
 20
4559320.76
 30
0.0
  1
L10300 E
 11
705588.365
 21
4559320.76
 31
0.0
 40
59.9999929
 41
1
 50
-46.378
 51
0
 71
0
 62
7
  7
ARIAL
  0
POLYLINE
  8
Data_PATH_09007_1_Final
 66
1
 40
3.59999957
 41
3.59999957
 62
7
 10
705576.967
 20
4559376.21
 30
0.0
  0
VERTEX
  8
Data_PATH_09007_1_Final
 10
705576.967
 20
4559376.21
 30
0.0
  0
VERTEX
  8
Data_PATH_09007_1_Final
 10
705509.121
 20
4559447.3
 30
0.0
  0
VERTEX
  8
Data_PATH_09007_1_Final
 10
705446.111
 20
4559516.73
 30
0.0
  0
VERTEX
  8
Data_PATH_09007_1_Final
 10
705387.22
 20
4559587.23
 30
0.0
  0
VERTEX
  8
Data_PATH_09007_1_Final
 10
705357.314
 20
4559621.47
 30
0.0
  0
VERTEX
  8
Data_PATH_09007_1_Final
 10
705325.141
 20
4559654.51
 30
0.0
  0
VERTEX
  8
Data_PATH_09007_1_Final
 10
705254.714
 20
4559718.98
 30
0.0
  0
VERTEX
  8
Data_PATH_09007_1_Final
 10
705219.631
 20
4559752.08
 30
0.0
  0
VERTEX
  8
Data_PATH_09007_1_Final
 10
705186.729
 20
4559785.62
 30
0.0
  0
VERTEX
  8
Data_PATH_09007_1_Final
 10
705123.574
 20
4559852.66
 30
0.0
  0
VERTEX
  8
Data_PATH_09007_1_Final
 10
705058.435
 20
4559916.16
 30
0.0
  0
VERTEX
  8
Data_PATH_09007_1_Final
 10
705026.758
 20
4559947.32
 30
0.0
  0
VERTEX
  8
Data_PATH_09007_1_Final
 10
704995.732
 20
4559979.55
 30
0.0
  0
VERTEX
  8
Data_PATH_09007_1_Final
 10
704866.677
 20
4560114.31
 30
0.0
  0
VERTEX
  8
Data_PATH_09007_1_Final
 10
704739.792
 20
4560252.8
 30
0.0
  0
VERTEX
  8
Data_PATH_09007_1_Final
 10
704708.033
 20
4560287.66
 30
0.0
  0
VERTEX
  8
Data_PATH_09007_1_Final
 10
704677.518
 20
4560324.25
 30
0.0
  0
VERTEX
  8
Data_PATH_09007_1_Final
 10
704624.625
 20
4560393.05
 30
0.0
  0
VERTEX
  8
Data_PATH_09007_1_Final
 10
704597.825
 20
4560425
 30
0.0
  0
VERTEX
  8
Data_PATH_09007_1_Final
 10
704567.541
 20
4560456.95
 30
0.0
  0
VERTEX
  8
Data_PATH_09007_1_Final
 10
704499.272
 20
4560523.88
 30
0.0
  0
VERTEX
  8
Data_PATH_09007_1_Final
 10
704466.731
 20
4560557.37
 30
0.0
  0
VERTEX
  8
Data_PATH_09007_1_Final
 10
704436.547
 20
4560590.19
 30
0.0
  0
VERTEX
  8
Data_PATH_09007_1_Final
 10
704374.089
 20
4560657.36
 30
0.0
  0
VERTEX
  8
Data_PATH_09007_1_Final
 10
704305.979
 20
4560727.44
 30
0.0
  0
VERTEX
  8
Data_PATH_09007_1_Final
 10
704174.674
 20
4560861.32
 30
0.0
  0
VERTEX
  8
Data_PATH_09007_1_Final
 10
704108.67
 20
4560930.26
 30
0.0
  0
VERTEX
  8
Data_PATH_09007_1_Final
 10
703981.321
 20
4561057.17
 30
0.0
  0
VERTEX
  8
Data_PATH_09007_1_Final
 10
703787.253
 20
4561260.3
 30
0.0
  0
VERTEX
  8
Data_PATH_09007_1_Final
 10
703654.775
 20
4561401.42
 30
0.0
  0
VERTEX
  8
Data_PATH_09007_1_Final
 10
703525.271
 20
4561536.69
 30
0.0
  0
VERTEX
  8
Data_PATH_09007_1_Final
 10
703396.6
 20
4561681.63
 30
0.0
  0
VERTEX
  8
Data_PATH_09007_1_Final
 10
703254.952
 20
4561822.08
 30
0.0
  0
VERTEX
  8
Data_PATH_09007_1_Final
 10
703078.942
 20
4562000.94
 30
0.0
  0
VERTEX
  8
Data_PATH_09007_1_Final
 10
703045.813
 20
4562036.95
 30
0.0
  0
VERTEX
  8
Data_PATH_09007_1_Final
 10
702947.604
 20
4562148.08
 30
0.0
  0
VERTEX
  8
Data_PATH_09007_1_Final
 10
702911.79
 20
4562186.93
 30
0.0
  0
VERTEX
  8
Data_PATH_09007_1_Final
 10
702875.01
 20
4562224.63
 30
0.0
  0
VERTEX
  8
Data_PATH_09007_1_Final
 10
702838.111
 20
4562260.37
 30
0.0
  0
VERTEX
  8
Data_PATH_09007_1_Final
 10
702723.964
 20
4562366.06
 30
0.0
  0
VERTEX
  8
Data_PATH_09007_1_Final
 10
702685.554
 20
4562403.77
 30
0.0
  0
VERTEX
  8
Data_PATH_09007_1_Final
 10
702611.928
 20
4562480.28
 30
0.0
  0
VERTEX
  8
Data_PATH_09007_1_Final
 10
702508.001
 20
4562593.23
 30
0.0
  0
VERTEX
  8
Data_PATH_09007_1_Final
 10
702474.779
 20
4562628.49
 30
0.0
  0
VERTEX
  8
Data_PATH_09007_1_Final
 10
702440.435
 20
4562663.01
 30
0.0
  0
VERTEX
  8
Data_PATH_09007_1_Final
 10
702366.892
 20
4562733.42
 30
0.0
  0
VERTEX
  8
Data_PATH_09007_1_Final
 10
702331.347
 20
4562768.66
 30
0.0
  0
VERTEX
  8
Data_PATH_09007_1_Final
 10
702298.829
 20
4562803.29
 30
0.0
  0
VERTEX
  8
Data_PATH_09007_1_Final
 10
702205.542
 20
4562906.66
 30
0.0
  0
VERTEX
  8
Data_PATH_09007_1_Final
 10
702141.536
 20
4562975.09
 30
0.0
  0
VERTEX
  8
Data_PATH_09007_1_Final
 10
702076.302
 20
4563049.42
 30
0.0
  0
SEQEND
  8
Data_PATH_09007_1_Final
  0
TEXT
  8
Data_PATH_09007_1_Final
 10
695057.356
 20
4558055.02
 30
0.0
  1
T19020 N
 11
695057.356
 21
4558055.02
 31
0.0
 40
59.9999929
 41
1
 50
42.428
 51
0
 71
0
 62
7
  7
ARIAL
 72
2
 73
0
  0
TEXT
  8
Data_PATH_09007_1_Final
 10
700419.541
 20
4562956.15
 30
0.0
  1
T19020 N
 11
700419.541
 21
4562956.15
 31
0.0
 40
59.9999929
 41
1
 50
42.428
 51
0
 71
0
 62
7
  7
ARIAL
  0
POLYLINE
  8
Data_PATH_09007_1_Final
 66
1
 40
3.59999957
 41
3.59999957
 62
7
 10
700363.871
 20
4562945.91
 30
0.0
  0
VERTEX
  8
Data_PATH_09007_1_Final
 10
700363.871
 20
4562945.91
 30
0.0
  0
VERTEX
  8
Data_PATH_09007_1_Final
 10
700352.177
 20
4562915.27
 30
0.0
  0
VERTEX
  8
Data_PATH_09007_1_Final
 10
700339.49
 20
4562885.77
 30
0.0
  0
VERTEX
  8
Data_PATH_09007_1_Final
 10
700311.551
 20
4562828.91
 30
0.0
  0
VERTEX
  8
Data_PATH_09007_1_Final
 10
700282.5
 20
4562772.12
 30
0.0
  0
VERTEX
  8
Data_PATH_09007_1_Final
 10
700255.788
 20
4562713.13
 30
0.0
  0
VERTEX
  8
Data_PATH_09007_1_Final
 10
700230.265
 20
4562652.49
 30
0.0
  0
VERTEX
  8
Data_PATH_09007_1_Final
 10
700216.19
 20
4562622.93
 30
0.0
  0
VERTEX
  8
Data_PATH_09007_1_Final
 10
700200.542
 20
4562594.92
 30
0.0
  0
VERTEX
  8
Data_PATH_09007_1_Final
 10
700192.455
 20
4562581.18
 30
0.0
  0
VERTEX
  8
Data_PATH_09007_1_Final
 10
700182.846
 20
4562568.85
 30
0.0
  0
VERTEX
  8
Data_PATH_09007_1_Final
 10
700168.432
 20
4562550.36
 30
0.0
  0
VERTEX
  8
Data_PATH_09007_1_Final
 10
700151.854
 20
4562534.38
 30
0.0
  0
VERTEX
  8
Data_PATH_09007_1_Final
 10
700140.802
 20
4562523.73
 30
0.0
  0
VERTEX
  8
Data_PATH_09007_1_Final
 10
700128.709
 20
4562514.66
 30
0.0
  0
VERTEX
  8
Data_PATH_09007_1_Final
 10
700104.137
 20
4562497.34
 30
0.0
  0
VERTEX
  8
Data_PATH_09007_1_Final
 10
700078.405
 20
4562482.46
 30
0.0
  0
VERTEX
  8
Data_PATH_09007_1_Final
 10
700051.827
 20
4562470.51
 30
0.0
  0
VERTEX
  8
Data_PATH_09007_1_Final
 10
700025.577
 20
4562459.84
 30
0.0
  0
VERTEX
  8
Data_PATH_09007_1_Final
 10
699975.354
 20
4562440.74
 30
0.0
  0
VERTEX
  8
Data_PATH_09007_1_Final
 10
699928.525
 20
4562421.89
 30
0.0
  0
VERTEX
  8
Data_PATH_09007_1_Final
 10
699881.53
 20
4562402.69
 30
0.0
  0
VERTEX
  8
Data_PATH_09007_1_Final
 10
699856.788
 20
4562393.66
 30
0.0
  0
VERTEX
  8
Data_PATH_09007_1_Final
 10
699831.17
 20
4562385.39
 30
0.0
  0
VERTEX
  8
Data_PATH_09007_1_Final
 10
699804.41
 20
4562378.57
 30
0.0
  0
VERTEX
  8
Data_PATH_09007_1_Final
 10
699777.025
 20
4562373.09
 30
0.0
  0
VERTEX
  8
Data_PATH_09007_1_Final
 10
699722.262
 20
4562365.46
 30
0.0
  0
VERTEX
  8
Data_PATH_09007_1_Final
 10
699670.211
 20
4562359.98
 30
0.0
  0
VERTEX
  8
Data_PATH_09007_1_Final
 10
699633.322
 20
4562354.33
 30
0.0
  0
VERTEX
  8
Data_PATH_09007_1_Final
 10
699598.088
 20
4562343.64
 30
0.0
  0
VERTEX
  8
Data_PATH_09007_1_Final
 10
699575.289
 20
4562334.4
 30
0.0
  0
VERTEX
  8
Data_PATH_09007_1_Final
 10
699552.537
 20
4562322.7
 30
0.0
  0
VERTEX
  8
Data_PATH_09007_1_Final
 10
699505.197
 20
4562295.11
 30
0.0
  0
VERTEX
  8
Data_PATH_09007_1_Final
 10
699480.778
 20
4562281.47
 30
0.0
  0
VERTEX
  8
Data_PATH_09007_1_Final
 10
699456.216
 20
4562269.14
 30
0.0
  0
VERTEX
  8
Data_PATH_09007_1_Final
 10
699431.739
 20
4562259.39
 30
0.0
  0
VERTEX
  8
Data_PATH_09007_1_Final
 10
699407.688
 20
4562251.17
 30
0.0
  0
VERTEX
  8
Data_PATH_09007_1_Final
 10
699336.584
 20
4562229.79
 30
0.0
  0
VERTEX
  8
Data_PATH_09007_1_Final
 10
699313.375
 20
4562219.59
 30
0.0
  0
VERTEX
  8
Data_PATH_09007_1_Final
 10
699279.583
 20
4562199.41
 30
0.0
  0
VERTEX
  8
Data_PATH_09007_1_Final
 10
699248.702
 20
4562171.42
 30
0.0
  0
VERTEX
  8
Data_PATH_09007_1_Final
 10
699229.773
 20
4562150.02
 30
0.0
  0
VERTEX
  8
Data_PATH_09007_1_Final
 10
699213.844
 20
4562126.45
 30
0.0
  0
VERTEX
  8
Data_PATH_09007_1_Final
 10
699200.267
 20
4562102.7
 30
0.0
  0
VERTEX
  8
Data_PATH_09007_1_Final
 10
699188.744
 20
4562079.36
 30
0.0
  0
VERTEX
  8
Data_PATH_09007_1_Final
 10
699169.901
 20
4562035.99
 30
0.0
  0
VERTEX
  8
Data_PATH_09007_1_Final
 10
699160.79
 20
4562016.98
 30
0.0
  0
VERTEX
  8
Data_PATH_09007_1_Final
 10
699144.83
 20
4561990.75
 30
0.0
  0
VERTEX
  8
Data_PATH_09007_1_Final
 10
699124.089
 20
4561967.08
 30
0.0
  0
VERTEX
  8
Data_PATH_09007_1_Final
 10
699108.118
 20
4561951.93
 30
0.0
  0
VERTEX
  8
Data_PATH_09007_1_Final
 10
699028.833
 20
4561890.93
 30
0.0
  0
VERTEX
  8
Data_PATH_09007_1_Final
 10
699010.03
 20
4561875.21
 30
0.0
  0
VERTEX
  8
Data_PATH_09007_1_Final
 10
698993.417
 20
4561859.45
 30
0.0
  0
VERTEX
  8
Data_PATH_09007_1_Final
 10
698978.331
 20
4561843.44
 30
0.0
  0
VERTEX
  8
Data_PATH_09007_1_Final
 10
698964.337
 20
4561827.09
 30
0.0
  0
VERTEX
  8
Data_PATH_09007_1_Final
 10
698937.421
 20
4561792.78
 30
0.0
  0
VERTEX
  8
Data_PATH_09007_1_Final
 10
698906.95
 20
4561756.29
 30
0.0
  0
VERTEX
  8
Data_PATH_09007_1_Final
 10
698889.846
 20
4561737.94
 30
0.0
  0
VERTEX
  8
Data_PATH_09007_1_Final
 10
698871.561
 20
4561719.84
 30
0.0
  0
VERTEX
  8
Data_PATH_09007_1_Final
 10
698852.165
 20
4561702.16
 30
0.0
  0
VERTEX
  8
Data_PATH_09007_1_Final
 10
698831.858
 20
4561685.17
 30
0.0
  0
VERTEX
  8
Data_PATH_09007_1_Final
 10
698754.24
 20
4561622.03
 30
0.0
  0
VERTEX
  8
Data_PATH_09007_1_Final
 10
698684.644
 20
4561559.88
 30
0.0
  0
VERTEX
  8
Data_PATH_09007_1_Final
 10
698646.507
 20
4561526.62
 30
0.0
  0
VERTEX
  8
Data_PATH_09007_1_Final
 10
698606.742
 20
4561493.29
 30
0.0
  0
VERTEX
  8
Data_PATH_09007_1_Final
 10
698567.515
 20
4561460.3
 30
0.0
  0
VERTEX
  8
Data_PATH_09007_1_Final
 10
698531.067
 20
4561427.16
 30
0.0
  0
VERTEX
  8
Data_PATH_09007_1_Final
 10
698497.117
 20
4561393.02
 30
0.0
  0
VERTEX
  8
Data_PATH_09007_1_Final
 10
698463.323
 20
4561356.05
 30
0.0
  0
VERTEX
  8
Data_PATH_09007_1_Final
 10
698428.036
 20
4561318.25
 30
0.0
  0
VERTEX
  8
Data_PATH_09007_1_Final
 10
698392.823
 20
4561282.37
 30
0.0
  0
VERTEX
  8
Data_PATH_09007_1_Final
 10
698358.126
 20
4561249.92
 30
0.0
  0
VERTEX
  8
Data_PATH_09007_1_Final
 10
698322.525
 20
4561219.41
 30
0.0
  0
VERTEX
  8
Data_PATH_09007_1_Final
 10
698286.243
 20
4561188.41
 30
0.0
  0
VERTEX
  8
Data_PATH_09007_1_Final
 10
698249.689
 20
4561154.75
 30
0.0
  0
VERTEX
  8
Data_PATH_09007_1_Final
 10
698177.648
 20
4561084.44
 30
0.0
  0
VERTEX
  8
Data_PATH_09007_1_Final
 10
698141.499
 20
4561051.22
 30
0.0
  0
VERTEX
  8
Data_PATH_09007_1_Final
 10
698065.475
 20
4560985.33
 30
0.0
  0
VERTEX
  8
Data_PATH_09007_1_Final
 10
698027.147
 20
4560949.33
 30
0.0
  0
VERTEX
  8
Data_PATH_09007_1_Final
 10
697991.084
 20
4560911.65
 30
0.0
  0
VERTEX
  8
Data_PATH_09007_1_Final
 10
697923.055
 20
4560836.56
 30
0.0
  0
VERTEX
  8
Data_PATH_09007_1_Final
 10
697886.647
 20
4560801.43
 30
0.0
  0
VERTEX
  8
Data_PATH_09007_1_Final
 10
697809.421
 20
4560735.83
 30
0.0
  0
VERTEX
  8
Data_PATH_09007_1_Final
 10
697771.797
 20
4560702.54
 30
0.0
  0
VERTEX
  8
Data_PATH_09007_1_Final
 10
697735.824
 20
4560666.87
 30
0.0
  0
VERTEX
  8
Data_PATH_09007_1_Final
 10
697700.314
 20
4560629.51
 30
0.0
  0
VERTEX
  8
Data_PATH_09007_1_Final
 10
697663.332
 20
4560592.55
 30
0.0
  0
VERTEX
  8
Data_PATH_09007_1_Final
 10
697623.7
 20
4560557.82
 30
0.0
  0
VERTEX
  8
Data_PATH_09007_1_Final
 10
697582.721
 20
4560524.95
 30
0.0
  0
VERTEX
  8
Data_PATH_09007_1_Final
 10
697541.119
 20
4560492.01
 30
0.0
  0
VERTEX
  8
Data_PATH_09007_1_Final
 10
697500.322
 20
4560456.97
 30
0.0
  0
VERTEX
  8
Data_PATH_09007_1_Final
 10
697460.161
 20
4560419.31
 30
0.0
  0
VERTEX
  8
Data_PATH_09007_1_Final
 10
697419.936
 20
4560380.19
 30
0.0
  0
VERTEX
  8
Data_PATH_09007_1_Final
 10
697379.567
 20
4560342.82
 30
0.0
  0
VERTEX
  8
Data_PATH_09007_1_Final
 10
697339.272
 20
4560308.16
 30
0.0
  0
VERTEX
  8
Data_PATH_09007_1_Final
 10
697298.941
 20
4560273.99
 30
0.0
  0
VERTEX
  8
Data_PATH_09007_1_Final
 10
697258.965
 20
4560237.9
 30
0.0
  0
VERTEX
  8
Data_PATH_09007_1_Final
 10
697219.469
 20
4560198.11
 30
0.0
  0
VERTEX
  8
Data_PATH_09007_1_Final
 10
697180.174
 20
4560157.11
 30
0.0
  0
VERTEX
  8
Data_PATH_09007_1_Final
 10
697141.349
 20
4560117.94
 30
0.0
  0
VERTEX
  8
Data_PATH_09007_1_Final
 10
697102.743
 20
4560082.12
 30
0.0
  0
VERTEX
  8
Data_PATH_09007_1_Final
 10
697064.324
 20
4560048.13
 30
0.0
  0
VERTEX
  8
Data_PATH_09007_1_Final
 10
697026.019
 20
4560012.88
 30
0.0
  0
VERTEX
  8
Data_PATH_09007_1_Final
 10
696987.601
 20
4559975.34
 30
0.0
  0
VERTEX
  8
Data_PATH_09007_1_Final
 10
696949.324
 20
4559935.94
 30
0.0
  0
VERTEX
  8
Data_PATH_09007_1_Final
 10
696873.344
 20
4559858.86
 30
0.0
  0
VERTEX
  8
Data_PATH_09007_1_Final
 10
696800.03
 20
4559787.24
 30
0.0
  0
VERTEX
  8
Data_PATH_09007_1_Final
 10
696726.43
 20
4559712.96
 30
0.0
  0
VERTEX
  8
Data_PATH_09007_1_Final
 10
696688.634
 20
4559675.87
 30
0.0
  0
VERTEX
  8
Data_PATH_09007_1_Final
 10
696650.199
 20
4559640.68
 30
0.0
  0
VERTEX
  8
Data_PATH_09007_1_Final
 10
696573.061
 20
4559573.19
 30
0.0
  0
VERTEX
  8
Data_PATH_09007_1_Final
 10
696494.476
 20
4559502.3
 30
0.0
  0
VERTEX
  8
Data_PATH_09007_1_Final
 10
696415.284
 20
4559426.78
 30
0.0
  0
VERTEX
  8
Data_PATH_09007_1_Final
 10
696254.808
 20
4559275.11
 30
0.0
  0
VERTEX
  8
Data_PATH_09007_1_Final
 10
696215.905
 20
4559235.85
 30
0.0
  0
VERTEX
  8
Data_PATH_09007_1_Final
 10
696099.694
 20
4559115.36
 30
0.0
  0
VERTEX
  8
Data_PATH_09007_1_Final
 10
696020.899
 20
4559038.58
 30
0.0
  0
VERTEX
  8
Data_PATH_09007_1_Final
 10
695704.249
 20
4558735.92
 30
0.0
  0
VERTEX
  8
Data_PATH_09007_1_Final
 10
695502.516
 20
4558545.84
 30
0.0
  0
VERTEX
  8
Data_PATH_09007_1_Final
 10
695385.75
 20
4558427.16
 30
0.0
  0
VERTEX
  8
Data_PATH_09007_1_Final
 10
695269.977
 20
4558313.97
 30
0.0
  0
VERTEX
  8
Data_PATH_09007_1_Final
 10
695230.748
 20
4558273.9
 30
0.0
  0
VERTEX
  8
Data_PATH_09007_1_Final
 10
695118.002
 20
4558153.24
 30
0.0
  0
VERTEX
  8
Data_PATH_09007_1_Final
 10
695072.546
 20
4558109.55
 30
0.0
  0
SEQEND
  8
Data_PATH_09007_1_Final
  0
TEXT
  8
Data_PATH_09007_1_Final
 10
697130.783
 20
4555928.93
 30
0.0
  1
T19030 N
 11
697130.783
 21
4555928.93
 31
0.0
 40
59.9999929
 41
1
 50
43.63
 51
0
 71
0
 62
7
  7
ARIAL
 72
2
 73
0
  0
TEXT
  8
Data_PATH_09007_1_Final
 10
703755.513
 20
4562244.26
 30
0.0
  1
T19030 N
 11
703755.513
 21
4562244.26
 31
0.0
 40
59.9999929
 41
1
 50
43.63
 51
0
 71
0
 62
7
  7
ARIAL
  0
POLYLINE
  8
Data_PATH_09007_1_Final
 66
1
 40
3.59999957
 41
3.59999957
 62
7
 10
697144.826
 20
4555983.77
 30
0.0
  0
VERTEX
  8
Data_PATH_09007_1_Final
 10
697144.826
 20
4555983.77
 30
0.0
  0
VERTEX
  8
Data_PATH_09007_1_Final
 10
697310.838
 20
4556135.44
 30
0.0
  0
VERTEX
  8
Data_PATH_09007_1_Final
 10
697396.005
 20
4556217.18
 30
0.0
  0
VERTEX
  8
Data_PATH_09007_1_Final
 10
697438.262
 20
4556256.4
 30
0.0
  0
VERTEX
  8
Data_PATH_09007_1_Final
 10
697566.544
 20
4556371.41
 30
0.0
  0
VERTEX
  8
Data_PATH_09007_1_Final
 10
697608.504
 20
4556410.05
 30
0.0
  0
VERTEX
  8
Data_PATH_09007_1_Final
 10
697649.026
 20
4556448.67
 30
0.0
  0
VERTEX
  8
Data_PATH_09007_1_Final
 10
697727.288
 20
4556525.2
 30
0.0
  0
VERTEX
  8
Data_PATH_09007_1_Final
 10
697805.599
 20
4556603.15
 30
0.0
  0
VERTEX
  8
Data_PATH_09007_1_Final
 10
697845.63
 20
4556640.54
 30
0.0
  0
VERTEX
  8
Data_PATH_09007_1_Final
 10
697887.622
 20
4556677.76
 30
0.0
  0
VERTEX
  8
Data_PATH_09007_1_Final
 10
697930.198
 20
4556716.38
 30
0.0
  0
VERTEX
  8
Data_PATH_09007_1_Final
 10
697971.064
 20
4556756.3
 30
0.0
  0
VERTEX
  8
Data_PATH_09007_1_Final
 10
698043.614
 20
4556831.75
 30
0.0
  0
VERTEX
  8
Data_PATH_09007_1_Final
 10
698080.189
 20
4556867.44
 30
0.0
  0
VERTEX
  8
Data_PATH_09007_1_Final
 10
698162.014
 20
4556939.66
 30
0.0
  0
VERTEX
  8
Data_PATH_09007_1_Final
 10
698201.556
 20
4556975.64
 30
0.0
  0
VERTEX
  8
Data_PATH_09007_1_Final
 10
698238.295
 20
4557011.12
 30
0.0
  0
VERTEX
  8
Data_PATH_09007_1_Final
 10
698342.566
 20
4557116.15
 30
0.0
  0
VERTEX
  8
Data_PATH_09007_1_Final
 10
698416.193
 20
4557188.21
 30
0.0
  0
VERTEX
  8
Data_PATH_09007_1_Final
 10
698486.042
 20
4557259.04
 30
0.0
  0
VERTEX
  8
Data_PATH_09007_1_Final
 10
698521.37
 20
4557294.85
 30
0.0
  0
VERTEX
  8
Data_PATH_09007_1_Final
 10
698558.397
 20
4557329.88
 30
0.0
  0
VERTEX
  8
Data_PATH_09007_1_Final
 10
698596.21
 20
4557362.78
 30
0.0
  0
VERTEX
  8
Data_PATH_09007_1_Final
 10
698634.48
 20
4557394.3
 30
0.0
  0
VERTEX
  8
Data_PATH_09007_1_Final
 10
698672.29
 20
4557427.43
 30
0.0
  0
VERTEX
  8
Data_PATH_09007_1_Final
 10
698708.867
 20
4557463.32
 30
0.0
  0
VERTEX
  8
Data_PATH_09007_1_Final
 10
698777.917
 20
4557540.16
 30
0.0
  0
VERTEX
  8
Data_PATH_09007_1_Final
 10
698812.008
 20
4557575.77
 30
0.0
  0
VERTEX
  8
Data_PATH_09007_1_Final
 10
698847.504
 20
4557609.06
 30
0.0
  0
VERTEX
  8
Data_PATH_09007_1_Final
 10
698885.069
 20
4557641.29
 30
0.0
  0
VERTEX
  8
Data_PATH_09007_1_Final
 10
699002.968
 20
4557737.93
 30
0.0
  0
VERTEX
  8
Data_PATH_09007_1_Final
 10
699040.647
 20
4557771.29
 30
0.0
  0
VERTEX
  8
Data_PATH_09007_1_Final
 10
699076.673
 20
4557805.77
 30
0.0
  0
VERTEX
  8
Data_PATH_09007_1_Final
 10
699146.487
 20
4557877.19
 30
0.0
  0
VERTEX
  8
Data_PATH_09007_1_Final
 10
699182.333
 20
4557912.61
 30
0.0
  0
VERTEX
  8
Data_PATH_09007_1_Final
 10
699221.121
 20
4557949.32
 30
0.0
  0
VERTEX
  8
Data_PATH_09007_1_Final
 10
699298.135
 20
4558019.54
 30
0.0
  0
VERTEX
  8
Data_PATH_09007_1_Final
 10
699448.472
 20
4558159.73
 30
0.0
  0
VERTEX
  8
Data_PATH_09007_1_Final
 10
699603.202
 20
4558298.05
 30
0.0
  0
VERTEX
  8
Data_PATH_09007_1_Final
 10
699677.778
 20
4558366
 30
0.0
  0
VERTEX
  8
Data_PATH_09007_1_Final
 10
699793.628
 20
4558478.14
 30
0.0
  0
VERTEX
  8
Data_PATH_09007_1_Final
 10
699871.666
 20
4558548.26
 30
0.0
  0
VERTEX
  8
Data_PATH_09007_1_Final
 10
699908.781
 20
4558583.51
 30
0.0
  0
VERTEX
  8
Data_PATH_09007_1_Final
 10
699926.535
 20
4558601.78
 30
0.0
  0
VERTEX
  8
Data_PATH_09007_1_Final
 10
699943.505
 20
4558620.67
 30
0.0
  0
VERTEX
  8
Data_PATH_09007_1_Final
 10
699976.398
 20
4558661.12
 30
0.0
  0
VERTEX
  8
Data_PATH_09007_1_Final
 10
700009.239
 20
4558704.67
 30
0.0
  0
VERTEX
  8
Data_PATH_09007_1_Final
 10
700026.305
 20
4558725.71
 30
0.0
  0
VERTEX
  8
Data_PATH_09007_1_Final
 10
700043.731
 20
4558745.35
 30
0.0
  0
VERTEX
  8
Data_PATH_09007_1_Final
 10
700061.619
 20
4558763.57
 30
0.0
  0
VERTEX
  8
Data_PATH_09007_1_Final
 10
700080.023
 20
4558780.54
 30
0.0
  0
VERTEX
  8
Data_PATH_09007_1_Final
 10
700155.18
 20
4558843.92
 30
0.0
  0
VERTEX
  8
Data_PATH_09007_1_Final
 10
700190.778
 20
4558877.49
 30
0.0
  0
VERTEX
  8
Data_PATH_09007_1_Final
 10
700258.185
 20
4558952.27
 30
0.0
  0
VERTEX
  8
Data_PATH_09007_1_Final
 10
700291.003
 20
4558987
 30
0.0
  0
VERTEX
  8
Data_PATH_09007_1_Final
 10
700360.195
 20
4559051.71
 30
0.0
  0
VERTEX
  8
Data_PATH_09007_1_Final
 10
700465.614
 20
4559154.94
 30
0.0
  0
VERTEX
  8
Data_PATH_09007_1_Final
 10
700502.847
 20
4559188.82
 30
0.0
  0
VERTEX
  8
Data_PATH_09007_1_Final
 10
700542.159
 20
4559221.01
 30
0.0
  0
VERTEX
  8
Data_PATH_09007_1_Final
 10
700581.197
 20
4559250.4
 30
0.0
  0
VERTEX
  8
Data_PATH_09007_1_Final
 10
700618.545
 20
4559280.56
 30
0.0
  0
VERTEX
  8
Data_PATH_09007_1_Final
 10
700636.33
 20
4559296.57
 30
0.0
  0
VERTEX
  8
Data_PATH_09007_1_Final
 10
700653.297
 20
4559313.51
 30
0.0
  0
VERTEX
  8
Data_PATH_09007_1_Final
 10
700685.999
 20
4559348.71
 30
0.0
  0
VERTEX
  8
Data_PATH_09007_1_Final
 10
700717.746
 20
4559384.59
 30
0.0
  0
VERTEX
  8
Data_PATH_09007_1_Final
 10
700750.835
 20
4559419.59
 30
0.0
  0
VERTEX
  8
Data_PATH_09007_1_Final
 10
700785.644
 20
4559452.99
 30
0.0
  0
VERTEX
  8
Data_PATH_09007_1_Final
 10
700855.381
 20
4559516.62
 30
0.0
  0
VERTEX
  8
Data_PATH_09007_1_Final
 10
700888.942
 20
4559550.03
 30
0.0
  0
VERTEX
  8
Data_PATH_09007_1_Final
 10
700954.651
 20
4559621.62
 30
0.0
  0
VERTEX
  8
Data_PATH_09007_1_Final
 10
701022.112
 20
4559693.26
 30
0.0
  0
VERTEX
  8
Data_PATH_09007_1_Final
 10
701053.733
 20
4559729.16
 30
0.0
  0
VERTEX
  8
Data_PATH_09007_1_Final
 10
701081.603
 20
4559766.03
 30
0.0
  0
VERTEX
  8
Data_PATH_09007_1_Final
 10
701134.339
 20
4559844.16
 30
0.0
  0
VERTEX
  8
Data_PATH_09007_1_Final
 10
701162.872
 20
4559881.79
 30
0.0
  0
VERTEX
  8
Data_PATH_09007_1_Final
 10
701177.982
 20
4559899.53
 30
0.0
  0
VERTEX
  8
Data_PATH_09007_1_Final
 10
701193.667
 20
4559916.34
 30
0.0
  0
VERTEX
  8
Data_PATH_09007_1_Final
 10
701226.697
 20
4559946.71
 30
0.0
  0
VERTEX
  8
Data_PATH_09007_1_Final
 10
701261.949
 20
4559974.59
 30
0.0
  0
VERTEX
  8
Data_PATH_09007_1_Final
 10
701298.6
 20
4560001.3
 30
0.0
  0
VERTEX
  8
Data_PATH_09007_1_Final
 10
701447.78
 20
4560114.55
 30
0.0
  0
VERTEX
  8
Data_PATH_09007_1_Final
 10
701485.391
 20
4560144.13
 30
0.0
  0
VERTEX
  8
Data_PATH_09007_1_Final
 10
701522.987
 20
4560175.79
 30
0.0
  0
VERTEX
  8
Data_PATH_09007_1_Final
 10
701670.927
 20
4560305.13
 30
0.0
  0
VERTEX
  8
Data_PATH_09007_1_Final
 10
701707.492
 20
4560340.4
 30
0.0
  0
VERTEX
  8
Data_PATH_09007_1_Final
 10
701742.77
 20
4560377.7
 30
0.0
  0
VERTEX
  8
Data_PATH_09007_1_Final
 10
701776.731
 20
4560414.59
 30
0.0
  0
VERTEX
  8
Data_PATH_09007_1_Final
 10
701810.647
 20
4560448.46
 30
0.0
  0
VERTEX
  8
Data_PATH_09007_1_Final
 10
701847.647
 20
4560480.38
 30
0.0
  0
VERTEX
  8
Data_PATH_09007_1_Final
 10
701887.203
 20
4560512.85
 30
0.0
  0
VERTEX
  8
Data_PATH_09007_1_Final
 10
701927.027
 20
4560546.73
 30
0.0
  0
VERTEX
  8
Data_PATH_09007_1_Final
 10
701965.44
 20
4560582.38
 30
0.0
  0
VERTEX
  8
Data_PATH_09007_1_Final
 10
702073.286
 20
4560689.84
 30
0.0
  0
VERTEX
  8
Data_PATH_09007_1_Final
 10
702111.328
 20
4560726.01
 30
0.0
  0
VERTEX
  8
Data_PATH_09007_1_Final
 10
702190.755
 20
4560797.38
 30
0.0
  0
VERTEX
  8
Data_PATH_09007_1_Final
 10
702264.53
 20
4560865.47
 30
0.0
  0
VERTEX
  8
Data_PATH_09007_1_Final
 10
702337.977
 20
4560935.69
 30
0.0
  0
VERTEX
  8
Data_PATH_09007_1_Final
 10
702376.854
 20
4560971.48
 30
0.0
  0
VERTEX
  8
Data_PATH_09007_1_Final
 10
702457.081
 20
4561041.22
 30
0.0
  0
VERTEX
  8
Data_PATH_09007_1_Final
 10
702496.459
 20
4561076.64
 30
0.0
  0
VERTEX
  8
Data_PATH_09007_1_Final
 10
702534.069
 20
4561113.61
 30
0.0
  0
VERTEX
  8
Data_PATH_09007_1_Final
 10
702606.963
 20
4561190.74
 30
0.0
  0
VERTEX
  8
Data_PATH_09007_1_Final
 10
702643.289
 20
4561227.47
 30
0.0
  0
VERTEX
  8
Data_PATH_09007_1_Final
 10
702681.122
 20
4561263.32
 30
0.0
  0
VERTEX
  8
Data_PATH_09007_1_Final
 10
702762.175
 20
4561336.34
 30
0.0
  0
VERTEX
  8
Data_PATH_09007_1_Final
 10
702800.346
 20
4561372.92
 30
0.0
  0
VERTEX
  8
Data_PATH_09007_1_Final
 10
702870.427
 20
4561443.38
 30
0.0
  0
VERTEX
  8
Data_PATH_09007_1_Final
 10
702984.925
 20
4561553
 30
0.0
  0
VERTEX
  8
Data_PATH_09007_1_Final
 10
703097.072
 20
4561666.05
 30
0.0
  0
VERTEX
  8
Data_PATH_09007_1_Final
 10
703134.768
 20
4561702.37
 30
0.0
  0
VERTEX
  8
Data_PATH_09007_1_Final
 10
703255.055
 20
4561812.71
 30
0.0
  0
VERTEX
  8
Data_PATH_09007_1_Final
 10
703330.498
 20
4561886.15
 30
0.0
  0
VERTEX
  8
Data_PATH_09007_1_Final
 10
703405.912
 20
4561957.71
 30
0.0
  0
VERTEX
  8
Data_PATH_09007_1_Final
 10
703481.531
 20
4562027.88
 30
0.0
  0
VERTEX
  8
Data_PATH_09007_1_Final
 10
703628.71
 20
4562169.04
 30
0.0
  0
VERTEX
  8
Data_PATH_09007_1_Final
 10
703700.071
 20
4562232.86
 30
0.0
  0
SEQEND
  8
Data_PATH_09007_1_Final
  0
TEXT
  8
Data_PATH_09007_1_Final
 10
698233.747
 20
4554767.51
 30
0.0
  1
T19035 N
 11
698233.747
 21
4554767.51
 31
0.0
 40
59.9999929
 41
1
 50
43.677
 51
0
 71
0
 62
7
  7
ARIAL
 72
2
 73
0
  0
TEXT
  8
Data_PATH_09007_1_Final
 10
704851.054
 20
4561086
 30
0.0
  1
T19035 N
 11
704851.054
 21
4561086
 31
0.0
 40
59.9999929
 41
1
 50
43.677
 51
0
 71
0
 62
7
  7
ARIAL
  0
POLYLINE
  8
Data_PATH_09007_1_Final
 66
1
 40
3.59999957
 41
3.59999957
 62
7
 10
704795.621
 20
4561074.55
 30
0.0
  0
VERTEX
  8
Data_PATH_09007_1_Final
 10
704795.621
 20
4561074.55
 30
0.0
  0
VERTEX
  8
Data_PATH_09007_1_Final
 10
704633.578
 20
4560939.56
 30
0.0
  0
VERTEX
  8
Data_PATH_09007_1_Final
 10
704555.804
 20
4560873.63
 30
0.0
  0
VERTEX
  8
Data_PATH_09007_1_Final
 10
704515.325
 20
4560836.38
 30
0.0
  0
VERTEX
  8
Data_PATH_09007_1_Final
 10
704400.789
 20
4560721.59
 30
0.0
  0
VERTEX
  8
Data_PATH_09007_1_Final
 10
704363.725
 20
4560685.53
 30
0.0
  0
VERTEX
  8
Data_PATH_09007_1_Final
 10
704325.126
 20
4560649.38
 30
0.0
  0
VERTEX
  8
Data_PATH_09007_1_Final
 10
704284.839
 20
4560613.13
 30
0.0
  0
VERTEX
  8
Data_PATH_09007_1_Final
 10
704245.565
 20
4560576.41
 30
0.0
  0
VERTEX
  8
Data_PATH_09007_1_Final
 10
704207.383
 20
4560538.56
 30
0.0
  0
VERTEX
  8
Data_PATH_09007_1_Final
 10
704169.928
 20
4560500.05
 30
0.0
  0
VERTEX
  8
Data_PATH_09007_1_Final
 10
704016.262
 20
4560345.86
 30
0.0
  0
VERTEX
  8
Data_PATH_09007_1_Final
 10
703903.027
 20
4560225.65
 30
0.0
  0
VERTEX
  8
Data_PATH_09007_1_Final
 10
703864.65
 20
4560187.49
 30
0.0
  0
VERTEX
  8
Data_PATH_09007_1_Final
 10
703825.665
 20
4560151.14
 30
0.0
  0
VERTEX
  8
Data_PATH_09007_1_Final
 10
703745.379
 20
4560078.46
 30
0.0
  0
VERTEX
  8
Data_PATH_09007_1_Final
 10
703706.124
 20
4560039.93
 30
0.0
  0
VERTEX
  8
Data_PATH_09007_1_Final
 10
703630.614
 20
4559961.93
 30
0.0
  0
VERTEX
  8
Data_PATH_09007_1_Final
 10
703593.985
 20
4559926.2
 30
0.0
  0
VERTEX
  8
Data_PATH_09007_1_Final
 10
703519.916
 20
4559857.8
 30
0.0
  0
VERTEX
  8
Data_PATH_09007_1_Final
 10
703483.022
 20
4559821.85
 30
0.0
  0
VERTEX
  8
Data_PATH_09007_1_Final
 10
703410.814
 20
4559746.83
 30
0.0
  0
VERTEX
  8
Data_PATH_09007_1_Final
 10
703374.932
 20
4559710.8
 30
0.0
  0
VERTEX
  8
Data_PATH_09007_1_Final
 10
703338.769
 20
4559677.11
 30
0.0
  0
VERTEX
  8
Data_PATH_09007_1_Final
 10
703264.765
 20
4559612.19
 30
0.0
  0
VERTEX
  8
Data_PATH_09007_1_Final
 10
703227.549
 20
4559577.22
 30
0.0
  0
VERTEX
  8
Data_PATH_09007_1_Final
 10
703154.893
 20
4559503.95
 30
0.0
  0
VERTEX
  8
Data_PATH_09007_1_Final
 10
703118.328
 20
4559468.48
 30
0.0
  0
VERTEX
  8
Data_PATH_09007_1_Final
 10
703080.534
 20
4559434.45
 30
0.0
  0
VERTEX
  8
Data_PATH_09007_1_Final
 10
703003.119
 20
4559366.99
 30
0.0
  0
VERTEX
  8
Data_PATH_09007_1_Final
 10
702964.906
 20
4559331.8
 30
0.0
  0
VERTEX
  8
Data_PATH_09007_1_Final
 10
702852.646
 20
4559221.57
 30
0.0
  0
VERTEX
  8
Data_PATH_09007_1_Final
 10
702813.057
 20
4559185.12
 30
0.0
  0
VERTEX
  8
Data_PATH_09007_1_Final
 10
702772.757
 20
4559149.54
 30
0.0
  0
VERTEX
  8
Data_PATH_09007_1_Final
 10
702734.341
 20
4559114.3
 30
0.0
  0
VERTEX
  8
Data_PATH_09007_1_Final
 10
702697.827
 20
4559078.75
 30
0.0
  0
VERTEX
  8
Data_PATH_09007_1_Final
 10
702626.392
 20
4559001.92
 30
0.0
  0
VERTEX
  8
Data_PATH_09007_1_Final
 10
702588.268
 20
4558962.41
 30
0.0
  0
VERTEX
  8
Data_PATH_09007_1_Final
 10
702472.959
 20
4558850.94
 30
0.0
  0
VERTEX
  8
Data_PATH_09007_1_Final
 10
702435.59
 20
4558812.73
 30
0.0
  0
VERTEX
  8
Data_PATH_09007_1_Final
 10
702360.98
 20
4558731.72
 30
0.0
  0
VERTEX
  8
Data_PATH_09007_1_Final
 10
702322.318
 20
4558692.24
 30
0.0
  0
VERTEX
  8
Data_PATH_09007_1_Final
 10
702283.087
 20
4558655.86
 30
0.0
  0
VERTEX
  8
Data_PATH_09007_1_Final
 10
702164.095
 20
4558553.19
 30
0.0
  0
VERTEX
  8
Data_PATH_09007_1_Final
 10
702049.573
 20
4558447.72
 30
0.0
  0
VERTEX
  8
Data_PATH_09007_1_Final
 10
701897.971
 20
4558311.13
 30
0.0
  0
VERTEX
  8
Data_PATH_09007_1_Final
 10
701822.573
 20
4558241.3
 30
0.0
  0
VERTEX
  8
Data_PATH_09007_1_Final
 10
701750.204
 20
4558172.41
 30
0.0
  0
VERTEX
  8
Data_PATH_09007_1_Final
 10
701606.365
 20
4558031.13
 30
0.0
  0
VERTEX
  8
Data_PATH_09007_1_Final
 10
701493.493
 20
4557925.23
 30
0.0
  0
VERTEX
  8
Data_PATH_09007_1_Final
 10
701458.313
 20
4557891.1
 30
0.0
  0
VERTEX
  8
Data_PATH_09007_1_Final
 10
701316.101
 20
4557742.76
 30
0.0
  0
VERTEX
  8
Data_PATH_09007_1_Final
 10
701242.915
 20
4557670.35
 30
0.0
  0
VERTEX
  8
Data_PATH_09007_1_Final
 10
701061.613
 20
4557493.31
 30
0.0
  0
VERTEX
  8
Data_PATH_09007_1_Final
 10
701024.389
 20
4557458.87
 30
0.0
  0
VERTEX
  8
Data_PATH_09007_1_Final
 10
700913.418
 20
4557360.6
 30
0.0
  0
VERTEX
  8
Data_PATH_09007_1_Final
 10
700801.798
 20
4557256.71
 30
0.0
  0
VERTEX
  8
Data_PATH_09007_1_Final
 10
700725.51
 20
4557189.13
 30
0.0
  0
VERTEX
  8
Data_PATH_09007_1_Final
 10
700687.599
 20
4557154.24
 30
0.0
  0
VERTEX
  8
Data_PATH_09007_1_Final
 10
700571.02
 20
4557040.86
 30
0.0
  0
VERTEX
  8
Data_PATH_09007_1_Final
 10
700452.864
 20
4556928.76
 30
0.0
  0
VERTEX
  8
Data_PATH_09007_1_Final
 10
700415.478
 20
4556891.06
 30
0.0
  0
VERTEX
  8
Data_PATH_09007_1_Final
 10
700339.287
 20
4556811.95
 30
0.0
  0
VERTEX
  8
Data_PATH_09007_1_Final
 10
700262.27
 20
4556736.16
 30
0.0
  0
VERTEX
  8
Data_PATH_09007_1_Final
 10
700106.516
 20
4556585.19
 30
0.0
  0
VERTEX
  8
Data_PATH_09007_1_Final
 10
699945.348
 20
4556435.9
 30
0.0
  0
VERTEX
  8
Data_PATH_09007_1_Final
 10
699862.624
 20
4556355.12
 30
0.0
  0
VERTEX
  8
Data_PATH_09007_1_Final
 10
699779.928
 20
4556271.96
 30
0.0
  0
VERTEX
  8
Data_PATH_09007_1_Final
 10
699740.83
 20
4556230.14
 30
0.0
  0
VERTEX
  8
Data_PATH_09007_1_Final
 10
699666.789
 20
4556145.96
 30
0.0
  0
VERTEX
  8
Data_PATH_09007_1_Final
 10
699628.312
 20
4556104.68
 30
0.0
  0
VERTEX
  8
Data_PATH_09007_1_Final
 10
699607.938
 20
4556084.76
 30
0.0
  0
VERTEX
  8
Data_PATH_09007_1_Final
 10
699586.714
 20
4556065.49
 30
0.0
  0
VERTEX
  8
Data_PATH_09007_1_Final
 10
699564.409
 20
4556047.02
 30
0.0
  0
VERTEX
  8
Data_PATH_09007_1_Final
 10
699451.007
 20
4555963.04
 30
0.0
  0
VERTEX
  8
Data_PATH_09007_1_Final
 10
699429.972
 20
4555945.26
 30
0.0
  0
VERTEX
  8
Data_PATH_09007_1_Final
 10
699409.363
 20
4555926.52
 30
0.0
  0
VERTEX
  8
Data_PATH_09007_1_Final
 10
699326.812
 20
4555843.4
 30
0.0
  0
VERTEX
  8
Data_PATH_09007_1_Final
 10
699284.248
 20
4555802.09
 30
0.0
  0
VERTEX
  8
Data_PATH_09007_1_Final
 10
699241.913
 20
4555763.62
 30
0.0
  0
VERTEX
  8
Data_PATH_09007_1_Final
 10
699158.578
 20
4555690.85
 30
0.0
  0
VERTEX
  8
Data_PATH_09007_1_Final
 10
699138.633
 20
4555671.99
 30
0.0
  0
VERTEX
  8
Data_PATH_09007_1_Final
 10
699119.09
 20
4555651.96
 30
0.0
  0
VERTEX
  8
Data_PATH_09007_1_Final
 10
699040.708
 20
4555568.11
 30
0.0
  0
VERTEX
  8
Data_PATH_09007_1_Final
 10
698960.392
 20
4555486.94
 30
0.0
  0
VERTEX
  8
Data_PATH_09007_1_Final
 10
698839.43
 20
4555368.43
 30
0.0
  0
VERTEX
  8
Data_PATH_09007_1_Final
 10
698798.054
 20
4555330.02
 30
0.0
  0
VERTEX
  8
Data_PATH_09007_1_Final
 10
698670.988
 20
4555217.62
 30
0.0
  0
VERTEX
  8
Data_PATH_09007_1_Final
 10
698629.934
 20
4555179.49
 30
0.0
  0
VERTEX
  8
Data_PATH_09007_1_Final
 10
698551.163
 20
4555101.86
 30
0.0
  0
VERTEX
  8
Data_PATH_09007_1_Final
 10
698509.628
 20
4555064.13
 30
0.0
  0
VERTEX
  8
Data_PATH_09007_1_Final
 10
698423.429
 20
4554992.04
 30
0.0
  0
VERTEX
  8
Data_PATH_09007_1_Final
 10
698382.724
 20
4554954.83
 30
0.0
  0
VERTEX
  8
Data_PATH_09007_1_Final
 10
698343.539
 20
4554914.77
 30
0.0
  0
VERTEX
  8
Data_PATH_09007_1_Final
 10
698304.245
 20
4554872.9
 30
0.0
  0
VERTEX
  8
Data_PATH_09007_1_Final
 10
698273.056
 20
4554842.67
 30
0.0
  0
VERTEX
  8
Data_PATH_09007_1_Final
 10
698247.745
 20
4554822.36
 30
0.0
  0
SEQEND
  8
Data_PATH_09007_1_Final
  0
TEXT
  8
Data_PATH_09007_1_Final
 10
699219.944
 20
4553766.78
 30
0.0
  1
T19040 N
 11
699219.944
 21
4553766.78
 31
0.0
 40
59.9999929
 41
1
 50
43.753
 51
0
 71
0
 62
7
  7
ARIAL
 72
2
 73
0
  0
TEXT
  8
Data_PATH_09007_1_Final
 10
705822.485
 20
4560088.07
 30
0.0
  1
T19040 N
 11
705822.485
 21
4560088.07
 31
0.0
 40
59.9999929
 41
1
 50
43.753
 51
0
 71
0
 62
7
  7
ARIAL
  0
POLYLINE
  8
Data_PATH_09007_1_Final
 66
1
 40
3.59999957
 41
3.59999957
 62
7
 10
699233.869
 20
4553821.65
 30
0.0
  0
VERTEX
  8
Data_PATH_09007_1_Final
 10
699233.869
 20
4553821.65
 30
0.0
  0
VERTEX
  8
Data_PATH_09007_1_Final
 10
699275.833
 20
4553854.25
 30
0.0
  0
VERTEX
  8
Data_PATH_09007_1_Final
 10
699316.962
 20
4553888.28
 30
0.0
  0
VERTEX
  8
Data_PATH_09007_1_Final
 10
699355.433
 20
4553922.88
 30
0.0
  0
VERTEX
  8
Data_PATH_09007_1_Final
 10
699391.968
 20
4553957.25
 30
0.0
  0
VERTEX
  8
Data_PATH_09007_1_Final
 10
699465.701
 20
4554028.82
 30
0.0
  0
VERTEX
  8
Data_PATH_09007_1_Final
 10
699545.894
 20
4554110.77
 30
0.0
  0
VERTEX
  8
Data_PATH_09007_1_Final
 10
699583.663
 20
4554149.44
 30
0.0
  0
VERTEX
  8
Data_PATH_09007_1_Final
 10
699620.059
 20
4554185.36
 30
0.0
  0
VERTEX
  8
Data_PATH_09007_1_Final
 10
699848.952
 20
4554406.7
 30
0.0
  0
VERTEX
  8
Data_PATH_09007_1_Final
 10
699926.855
 20
4554480
 30
0.0
  0
VERTEX
  8
Data_PATH_09007_1_Final
 10
700084.064
 20
4554619.09
 30
0.0
  0
VERTEX
  8
Data_PATH_09007_1_Final
 10
700121.496
 20
4554655.51
 30
0.0
  0
VERTEX
  8
Data_PATH_09007_1_Final
 10
700233.026
 20
4554769.2
 30
0.0
  0
VERTEX
  8
Data_PATH_09007_1_Final
 10
700347.783
 20
4554880.52
 30
0.0
  0
VERTEX
  8
Data_PATH_09007_1_Final
 10
700383.513
 20
4554918.84
 30
0.0
  0
VERTEX
  8
Data_PATH_09007_1_Final
 10
700465.048
 20
4555017.14
 30
0.0
  0
VERTEX
  8
Data_PATH_09007_1_Final
 10
700482.076
 20
4555035.69
 30
0.0
  0
VERTEX
  8
Data_PATH_09007_1_Final
 10
700518.129
 20
4555070.98
 30
0.0
  0
VERTEX
  8
Data_PATH_09007_1_Final
 10
700556.671
 20
4555104.44
 30
0.0
  0
VERTEX
  8
Data_PATH_09007_1_Final
 10
700595.46
 20
4555136.68
 30
0.0
  0
VERTEX
  8
Data_PATH_09007_1_Final
 10
700633.258
 20
4555169.76
 30
0.0
  0
VERTEX
  8
Data_PATH_09007_1_Final
 10
700707.393
 20
4555238.76
 30
0.0
  0
VERTEX
  8
Data_PATH_09007_1_Final
 10
700745.998
 20
4555273.05
 30
0.0
  0
VERTEX
  8
Data_PATH_09007_1_Final
 10
700823.214
 20
4555339.05
 30
0.0
  0
VERTEX
  8
Data_PATH_09007_1_Final
 10
700861.977
 20
4555373.76
 30
0.0
  0
VERTEX
  8
Data_PATH_09007_1_Final
 10
700900.315
 20
4555410.05
 30
0.0
  0
VERTEX
  8
Data_PATH_09007_1_Final
 10
700937.709
 20
4555447.22
 30
0.0
  0
VERTEX
  8
Data_PATH_09007_1_Final
 10
701007.265
 20
4555518.58
 30
0.0
  0
VERTEX
  8
Data_PATH_09007_1_Final
 10
701043.624
 20
4555554.58
 30
0.0
  0
VERTEX
  8
Data_PATH_09007_1_Final
 10
701082.802
 20
4555591.02
 30
0.0
  0
VERTEX
  8
Data_PATH_09007_1_Final
 10
701246.065
 20
4555732.37
 30
0.0
  0
VERTEX
  8
Data_PATH_09007_1_Final
 10
701411.661
 20
4555880.88
 30
0.0
  0
VERTEX
  8
Data_PATH_09007_1_Final
 10
701497.058
 20
4555952.59
 30
0.0
  0
VERTEX
  8
Data_PATH_09007_1_Final
 10
701540.117
 20
4555990.41
 30
0.0
  0
VERTEX
  8
Data_PATH_09007_1_Final
 10
701581.852
 20
4556029.67
 30
0.0
  0
VERTEX
  8
Data_PATH_09007_1_Final
 10
701658.533
 20
4556105.02
 30
0.0
  0
VERTEX
  8
Data_PATH_09007_1_Final
 10
701732.314
 20
4556181.23
 30
0.0
  0
VERTEX
  8
Data_PATH_09007_1_Final
 10
701843.312
 20
4556301.09
 30
0.0
  0
VERTEX
  8
Data_PATH_09007_1_Final
 10
701879.193
 20
4556337.22
 30
0.0
  0
VERTEX
  8
Data_PATH_09007_1_Final
 10
701956.634
 20
4556409.39
 30
0.0
  0
VERTEX
  8
Data_PATH_09007_1_Final
 10
701995.657
 20
4556446.43
 30
0.0
  0
VERTEX
  8
Data_PATH_09007_1_Final
 10
702032.754
 20
4556483.6
 30
0.0
  0
VERTEX
  8
Data_PATH_09007_1_Final
 10
702104.814
 20
4556558.71
 30
0.0
  0
VERTEX
  8
Data_PATH_09007_1_Final
 10
702180.347
 20
4556631.72
 30
0.0
  0
VERTEX
  8
Data_PATH_09007_1_Final
 10
702217.44
 20
4556668.01
 30
0.0
  0
VERTEX
  8
Data_PATH_09007_1_Final
 10
702253.236
 20
4556705.3
 30
0.0
  0
VERTEX
  8
Data_PATH_09007_1_Final
 10
702324.572
 20
4556783.62
 30
0.0
  0
VERTEX
  8
Data_PATH_09007_1_Final
 10
702360.966
 20
4556821.01
 30
0.0
  0
VERTEX
  8
Data_PATH_09007_1_Final
 10
702431.53
 20
4556891.72
 30
0.0
  0
VERTEX
  8
Data_PATH_09007_1_Final
 10
702502.222
 20
4556968.66
 30
0.0
  0
VERTEX
  8
Data_PATH_09007_1_Final
 10
702538.27
 20
4557005.78
 30
0.0
  0
VERTEX
  8
Data_PATH_09007_1_Final
 10
702574.276
 20
4557039.7
 30
0.0
  0
VERTEX
  8
Data_PATH_09007_1_Final
 10
702647.058
 20
4557105.69
 30
0.0
  0
VERTEX
  8
Data_PATH_09007_1_Final
 10
702719.277
 20
4557179.07
 30
0.0
  0
VERTEX
  8
Data_PATH_09007_1_Final
 10
702755.905
 20
4557215.22
 30
0.0
  0
VERTEX
  8
Data_PATH_09007_1_Final
 10
702792.722
 20
4557248.32
 30
0.0
  0
VERTEX
  8
Data_PATH_09007_1_Final
 10
702866.263
 20
4557308.74
 30
0.0
  0
VERTEX
  8
Data_PATH_09007_1_Final
 10
702900.842
 20
4557339.48
 30
0.0
  0
VERTEX
  8
Data_PATH_09007_1_Final
 10
702968.461
 20
4557405.42
 30
0.0
  0
VERTEX
  8
Data_PATH_09007_1_Final
 10
703004.873
 20
4557438.77
 30
0.0
  0
VERTEX
  8
Data_PATH_09007_1_Final
 10
703042.852
 20
4557469.9
 30
0.0
  0
VERTEX
  8
Data_PATH_09007_1_Final
 10
703118.581
 20
4557529.46
 30
0.0
  0
VERTEX
  8
Data_PATH_09007_1_Final
 10
703155.406
 20
4557560.9
 30
0.0
  0
VERTEX
  8
Data_PATH_09007_1_Final
 10
703229.217
 20
4557626.14
 30
0.0
  0
VERTEX
  8
Data_PATH_09007_1_Final
 10
703268.238
 20
4557656.62
 30
0.0
  0
VERTEX
  8
Data_PATH_09007_1_Final
 10
703308.893
 20
4557684.53
 30
0.0
  0
VERTEX
  8
Data_PATH_09007_1_Final
 10
703351.169
 20
4557711.66
 30
0.0
  0
VERTEX
  8
Data_PATH_09007_1_Final
 10
703394.533
 20
4557740.7
 30
0.0
  0
VERTEX
  8
Data_PATH_09007_1_Final
 10
703436.579
 20
4557771.33
 30
0.0
  0
VERTEX
  8
Data_PATH_09007_1_Final
 10
703518.058
 20
4557835.02
 30
0.0
  0
VERTEX
  8
Data_PATH_09007_1_Final
 10
703559.085
 20
4557867.65
 30
0.0
  0
VERTEX
  8
Data_PATH_09007_1_Final
 10
703599.445
 20
4557901.67
 30
0.0
  0
VERTEX
  8
Data_PATH_09007_1_Final
 10
703637.34
 20
4557938.4
 30
0.0
  0
VERTEX
  8
Data_PATH_09007_1_Final
 10
703672.886
 20
4557977.32
 30
0.0
  0
VERTEX
  8
Data_PATH_09007_1_Final
 10
703802.292
 20
4558131.45
 30
0.0
  0
VERTEX
  8
Data_PATH_09007_1_Final
 10
703866.457
 20
4558209.9
 30
0.0
  0
VERTEX
  8
Data_PATH_09007_1_Final
 10
703900.521
 20
4558247.18
 30
0.0
  0
VERTEX
  8
Data_PATH_09007_1_Final
 10
703972.09
 20
4558321.39
 30
0.0
  0
VERTEX
  8
Data_PATH_09007_1_Final
 10
704008.914
 20
4558361.94
 30
0.0
  0
VERTEX
  8
Data_PATH_09007_1_Final
 10
704076.154
 20
4558440.69
 30
0.0
  0
VERTEX
  8
Data_PATH_09007_1_Final
 10
704109.393
 20
4558477.65
 30
0.0
  0
VERTEX
  8
Data_PATH_09007_1_Final
 10
704145.926
 20
4558514.09
 30
0.0
  0
VERTEX
  8
Data_PATH_09007_1_Final
 10
704295.922
 20
4558654.12
 30
0.0
  0
VERTEX
  8
Data_PATH_09007_1_Final
 10
704334.17
 20
4558687.63
 30
0.0
  0
VERTEX
  8
Data_PATH_09007_1_Final
 10
704417.279
 20
4558756.95
 30
0.0
  0
VERTEX
  8
Data_PATH_09007_1_Final
 10
704459.53
 20
4558793.42
 30
0.0
  0
VERTEX
  8
Data_PATH_09007_1_Final
 10
704499.953
 20
4558831.13
 30
0.0
  0
VERTEX
  8
Data_PATH_09007_1_Final
 10
704537.784
 20
4558869.95
 30
0.0
  0
VERTEX
  8
Data_PATH_09007_1_Final
 10
704614.659
 20
4558953.51
 30
0.0
  0
VERTEX
  8
Data_PATH_09007_1_Final
 10
704726.494
 20
4559067.33
 30
0.0
  0
VERTEX
  8
Data_PATH_09007_1_Final
 10
704796.421
 20
4559144.68
 30
0.0
  0
VERTEX
  8
Data_PATH_09007_1_Final
 10
704833.922
 20
4559182.85
 30
0.0
  0
VERTEX
  8
Data_PATH_09007_1_Final
 10
704872.156
 20
4559216.8
 30
0.0
  0
VERTEX
  8
Data_PATH_09007_1_Final
 10
704910.782
 20
4559248.39
 30
0.0
  0
VERTEX
  8
Data_PATH_09007_1_Final
 10
704948.918
 20
4559281.52
 30
0.0
  0
VERTEX
  8
Data_PATH_09007_1_Final
 10
704967.507
 20
4559299.19
 30
0.0
  0
VERTEX
  8
Data_PATH_09007_1_Final
 10
704985.471
 20
4559317.61
 30
0.0
  0
VERTEX
  8
Data_PATH_09007_1_Final
 10
705054.95
 20
4559392.78
 30
0.0
  0
VERTEX
  8
Data_PATH_09007_1_Final
 10
705092.393
 20
4559428.71
 30
0.0
  0
VERTEX
  8
Data_PATH_09007_1_Final
 10
705171.455
 20
4559499.26
 30
0.0
  0
VERTEX
  8
Data_PATH_09007_1_Final
 10
705209.798
 20
4559536.69
 30
0.0
  0
VERTEX
  8
Data_PATH_09007_1_Final
 10
705282.127
 20
4559614.22
 30
0.0
  0
VERTEX
  8
Data_PATH_09007_1_Final
 10
705319.563
 20
4559651.64
 30
0.0
  0
VERTEX
  8
Data_PATH_09007_1_Final
 10
705359.186
 20
4559687.41
 30
0.0
  0
VERTEX
  8
Data_PATH_09007_1_Final
 10
705399.665
 20
4559722.56
 30
0.0
  0
VERTEX
  8
Data_PATH_09007_1_Final
 10
705438.902
 20
4559758.45
 30
0.0
  0
VERTEX
  8
Data_PATH_09007_1_Final
 10
705475.837
 20
4559796.53
 30
0.0
  0
VERTEX
  8
Data_PATH_09007_1_Final
 10
705511.651
 20
4559835.16
 30
0.0
  0
VERTEX
  8
Data_PATH_09007_1_Final
 10
705548.13
 20
4559872.29
 30
0.0
  0
VERTEX
  8
Data_PATH_09007_1_Final
 10
705586.716
 20
4559906.83
 30
0.0
  0
VERTEX
  8
Data_PATH_09007_1_Final
 10
705667.552
 20
4559974.39
 30
0.0
  0
VERTEX
  8
Data_PATH_09007_1_Final
 10
705706.147
 20
4560010.87
 30
0.0
  0
VERTEX
  8
Data_PATH_09007_1_Final
 10
705767.067
 20
4560076.55
 30
0.0
  0
SEQEND
  8
Data_PATH_09007_1_Final
  0
ENDSEC
  0
EOF
